999
Outputted By AR_CAD Ver.1.6.0
  0
SECTION
  2
HEADER
  9
$ACADVER
  1
AC1014
  9
$DWGCODEPAGE
  3
ANSI_932
  9
$EXTMIN
 10
0
 20
0
  9
$EXTMAX
 10
297
 20
210
  9
$INSBASE
 10
0.0
 20
0.0
 30
0.0
  9
$HANDLING
 70
     1
  9
$HANDSEED
  5
3D7
  9
$LTSCALE
 40
1
  0
ENDSEC
  0
SECTION
  2
TABLES
  0
TABLE
  2
VPORT
  5
1
100
AcDbSymbolTable
 70
     1
  0
VPORT
  5
30
100
AcDbSymbolTableRecord
100
AcDbViewportTableRecord
  2
*ACTIVE
 70
     0
 10
0.0
 20
0.0
 11
1.0
 21
1.0
 12
210.0
 22
148.5
 13
0.0
 23
0.0
 14
10.0
 24
10.0
 15
10.0
 25
10.0
 16
0.0
 26
0.0
 36
1.0
 17
0.0
 27
0.0
 37
0.0
 40
302.94
 41
1.333333
 42
50.0
 43
0.0
 44
0.0
 50
0.0
 51
0.0
 71
     0
 72
   100
 73
     1
 74
     1
 75
     0
 76
     0
 77
     0
 78
     0
  0
ENDTAB
  0
TABLE
  2
LTYPE
  5
2
100
AcDbSymbolTable
 70
     8
  0
LTYPE
  5
31
100
AcDbSymbolTableRecord
100
AcDbLinetypeTableRecord
  2
BYBLOCK
 70
    64
 3

 72
    65
 73
    0
 40
    0
  0
LTYPE
  5
32
100
AcDbSymbolTableRecord
100
AcDbLinetypeTableRecord
  2
BYLAYER
 70
    64
 3

 72
    65
 73
    0
 40
    0
  0
LTYPE
  5
33
100
AcDbSymbolTableRecord
100
AcDbLinetypeTableRecord
  2
CONTINUOUS
 70
    64
 3
CONTINUOUS
 72
    65
 73
    0
 40
    0
  0
LTYPE
  5
34
100
AcDbSymbolTableRecord
100
AcDbLinetypeTableRecord
  2
DASHED
 70
    64
 3

 72
    65
 73
    2
 40
    3.5
 49
    2.917
 74
    0
 49
    -0.583
 74
    0
  0
LTYPE
  5
35
100
AcDbSymbolTableRecord
100
AcDbLinetypeTableRecord
  2
DOT
 70
    64
 3

 72
    65
 73
    2
 40
    0.5
 49
    0.25
 74
    0
 49
    -0.25
 74
    0
  0
LTYPE
  5
36
100
AcDbSymbolTableRecord
100
AcDbLinetypeTableRecord
  2
DASHDOT
 70
    64
 3

 72
    65
 73
    4
 40
    3.5
 49
    1.841
 74
    0
 49
    -0.553
 74
    0
 49
    0.553
 74
    0
 49
    -0.553
 74
    0
  0
LTYPE
  5
37
100
AcDbSymbolTableRecord
100
AcDbLinetypeTableRecord
  2
DIVIDE
 70
    64
 3

 72
    65
 73
    6
 40
    3.5
 49
    1.4
 74
    0
 49
    -0.42
 74
    0
 49
    0.42
 74
    0
 49
    -0.42
 74
    0
 49
    0.42
 74
    0
 49
    -0.42
 74
    0
  0
LTYPE
  5
38
100
AcDbSymbolTableRecord
100
AcDbLinetypeTableRecord
  2
HIDDEN
 70
    64
 3

 72
    65
 73
    2
 40
    4
 49
    2
 74
    0
 49
    -2
 74
    0
  0
LTYPE
  5
39
100
AcDbSymbolTableRecord
100
AcDbLinetypeTableRecord
  2
CENTER
 70
    64
 3

 72
    65
 73
    4
 40
    0.6
 49
    0.375
 74
    0
 49
    -0.075
 74
    0
 49
    0.075
 74
    0
 49
    -0.075
 74
    0
  0
ENDTAB
  0
TABLE
  2
LAYER
  5
3
100
AcDbSymbolTable
 70
   257
  0
LAYER
  5
3A
100
AcDbSymbolTableRecord
100
AcDbLayerTableRecord
  2
0
 70
    0
 62
7
  6
CONTINUOUS
  0
LAYER
  5
3B
100
AcDbSymbolTableRecord
100
AcDbLayerTableRecord
  2
画層1
 70
    0
 62
-3
  6
CONTINUOUS
  0
LAYER
  5
3C
100
AcDbSymbolTableRecord
100
AcDbLayerTableRecord
  2
画層2
 70
    0
 62
9
  6
CONTINUOUS
  0
LAYER
  5
3D
100
AcDbSymbolTableRecord
100
AcDbLayerTableRecord
  2
画層3
 70
    0
 62
7
  6
CONTINUOUS
  0
LAYER
  5
3E
100
AcDbSymbolTableRecord
100
AcDbLayerTableRecord
  2
画層4
 70
    0
 62
6
  6
CONTINUOUS
  0
LAYER
  5
3F
100
AcDbSymbolTableRecord
100
AcDbLayerTableRecord
  2
画層5
 70
    0
 62
1
  6
CONTINUOUS
  0
LAYER
  5
40
100
AcDbSymbolTableRecord
100
AcDbLayerTableRecord
  2
画層6
 70
    0
 62
7
  6
CONTINUOUS
  0
LAYER
  5
41
100
AcDbSymbolTableRecord
100
AcDbLayerTableRecord
  2
画層7
 70
    0
 62
51
  6
CONTINUOUS
  0
LAYER
  5
42
100
AcDbSymbolTableRecord
100
AcDbLayerTableRecord
  2
画層8
 70
    0
 62
61
  6
CONTINUOUS
  0
LAYER
  5
43
100
AcDbSymbolTableRecord
100
AcDbLayerTableRecord
  2
画層9
 70
    0
 62
111
  6
CONTINUOUS
  0
LAYER
  5
44
100
AcDbSymbolTableRecord
100
AcDbLayerTableRecord
  2
画層10
 70
    0
 62
91
  6
CONTINUOUS
  0
LAYER
  5
45
100
AcDbSymbolTableRecord
100
AcDbLayerTableRecord
  2
画層11
 70
    0
 62
131
  6
CONTINUOUS
  0
LAYER
  5
46
100
AcDbSymbolTableRecord
100
AcDbLayerTableRecord
  2
画層12
 70
    0
 62
161
  6
CONTINUOUS
  0
LAYER
  5
47
100
AcDbSymbolTableRecord
100
AcDbLayerTableRecord
  2
画層13
 70
    0
 62
5
  6
CONTINUOUS
  0
LAYER
  5
48
100
AcDbSymbolTableRecord
100
AcDbLayerTableRecord
  2
画層14
 70
    0
 62
7
  6
CONTINUOUS
  0
LAYER
  5
49
100
AcDbSymbolTableRecord
100
AcDbLayerTableRecord
  2
画層15
 70
    0
 62
11
  6
CONTINUOUS
  0
LAYER
  5
4A
100
AcDbSymbolTableRecord
100
AcDbLayerTableRecord
  2
画層16
 70
    0
 62
7
  6
CONTINUOUS
  0
LAYER
  5
4B
100
AcDbSymbolTableRecord
100
AcDbLayerTableRecord
  2
画層17
 70
    0
 62
70
  6
CONTINUOUS
  0
LAYER
  5
4C
100
AcDbSymbolTableRecord
100
AcDbLayerTableRecord
  2
画層18
 70
    0
 62
211
  6
CONTINUOUS
  0
LAYER
  5
4D
100
AcDbSymbolTableRecord
100
AcDbLayerTableRecord
  2
画層19
 70
    0
 62
137
  6
CONTINUOUS
  0
LAYER
  5
4E
100
AcDbSymbolTableRecord
100
AcDbLayerTableRecord
  2
画層20
 70
    0
 62
4
  6
CONTINUOUS
  0
LAYER
  5
4F
100
AcDbSymbolTableRecord
100
AcDbLayerTableRecord
  2
画層21
 70
    0
 62
131
  6
CONTINUOUS
  0
LAYER
  5
50
100
AcDbSymbolTableRecord
100
AcDbLayerTableRecord
  2
画層22
 70
    0
 62
4
  6
CONTINUOUS
  0
LAYER
  5
51
100
AcDbSymbolTableRecord
100
AcDbLayerTableRecord
  2
画層23
 70
    0
 62
4
  6
CONTINUOUS
  0
LAYER
  5
52
100
AcDbSymbolTableRecord
100
AcDbLayerTableRecord
  2
画層24
 70
    0
 62
7
  6
CONTINUOUS
  0
LAYER
  5
53
100
AcDbSymbolTableRecord
100
AcDbLayerTableRecord
  2
画層25
 70
    0
 62
7
  6
CONTINUOUS
  0
LAYER
  5
54
100
AcDbSymbolTableRecord
100
AcDbLayerTableRecord
  2
画層26
 70
    0
 62
7
  6
CONTINUOUS
  0
LAYER
  5
55
100
AcDbSymbolTableRecord
100
AcDbLayerTableRecord
  2
画層27
 70
    0
 62
7
  6
CONTINUOUS
  0
LAYER
  5
56
100
AcDbSymbolTableRecord
100
AcDbLayerTableRecord
  2
画層28
 70
    0
 62
7
  6
CONTINUOUS
  0
LAYER
  5
57
100
AcDbSymbolTableRecord
100
AcDbLayerTableRecord
  2
画層29
 70
    0
 62
7
  6
CONTINUOUS
  0
LAYER
  5
58
100
AcDbSymbolTableRecord
100
AcDbLayerTableRecord
  2
画層30
 70
    0
 62
7
  6
CONTINUOUS
  0
LAYER
  5
59
100
AcDbSymbolTableRecord
100
AcDbLayerTableRecord
  2
画層31
 70
    0
 62
7
  6
CONTINUOUS
  0
LAYER
  5
5A
100
AcDbSymbolTableRecord
100
AcDbLayerTableRecord
  2
画層32
 70
    0
 62
7
  6
CONTINUOUS
  0
LAYER
  5
5B
100
AcDbSymbolTableRecord
100
AcDbLayerTableRecord
  2
画層33
 70
    0
 62
7
  6
CONTINUOUS
  0
LAYER
  5
5C
100
AcDbSymbolTableRecord
100
AcDbLayerTableRecord
  2
画層34
 70
    0
 62
7
  6
CONTINUOUS
  0
LAYER
  5
5D
100
AcDbSymbolTableRecord
100
AcDbLayerTableRecord
  2
画層35
 70
    0
 62
7
  6
CONTINUOUS
  0
LAYER
  5
5E
100
AcDbSymbolTableRecord
100
AcDbLayerTableRecord
  2
画層36
 70
    0
 62
7
  6
CONTINUOUS
  0
LAYER
  5
5F
100
AcDbSymbolTableRecord
100
AcDbLayerTableRecord
  2
画層37
 70
    0
 62
7
  6
CONTINUOUS
  0
LAYER
  5
60
100
AcDbSymbolTableRecord
100
AcDbLayerTableRecord
  2
画層38
 70
    0
 62
7
  6
CONTINUOUS
  0
LAYER
  5
61
100
AcDbSymbolTableRecord
100
AcDbLayerTableRecord
  2
画層39
 70
    0
 62
7
  6
CONTINUOUS
  0
LAYER
  5
62
100
AcDbSymbolTableRecord
100
AcDbLayerTableRecord
  2
画層40
 70
    0
 62
7
  6
CONTINUOUS
  0
LAYER
  5
63
100
AcDbSymbolTableRecord
100
AcDbLayerTableRecord
  2
画層41
 70
    0
 62
7
  6
CONTINUOUS
  0
LAYER
  5
64
100
AcDbSymbolTableRecord
100
AcDbLayerTableRecord
  2
画層42
 70
    0
 62
7
  6
CONTINUOUS
  0
LAYER
  5
65
100
AcDbSymbolTableRecord
100
AcDbLayerTableRecord
  2
画層43
 70
    0
 62
7
  6
CONTINUOUS
  0
LAYER
  5
66
100
AcDbSymbolTableRecord
100
AcDbLayerTableRecord
  2
画層44
 70
    0
 62
7
  6
CONTINUOUS
  0
LAYER
  5
67
100
AcDbSymbolTableRecord
100
AcDbLayerTableRecord
  2
画層45
 70
    0
 62
7
  6
CONTINUOUS
  0
LAYER
  5
68
100
AcDbSymbolTableRecord
100
AcDbLayerTableRecord
  2
画層46
 70
    0
 62
7
  6
CONTINUOUS
  0
LAYER
  5
69
100
AcDbSymbolTableRecord
100
AcDbLayerTableRecord
  2
画層47
 70
    0
 62
7
  6
CONTINUOUS
  0
LAYER
  5
6A
100
AcDbSymbolTableRecord
100
AcDbLayerTableRecord
  2
画層48
 70
    0
 62
7
  6
CONTINUOUS
  0
LAYER
  5
6B
100
AcDbSymbolTableRecord
100
AcDbLayerTableRecord
  2
画層49
 70
    0
 62
7
  6
CONTINUOUS
  0
LAYER
  5
6C
100
AcDbSymbolTableRecord
100
AcDbLayerTableRecord
  2
画層50
 70
    0
 62
7
  6
CONTINUOUS
  0
LAYER
  5
6D
100
AcDbSymbolTableRecord
100
AcDbLayerTableRecord
  2
画層51
 70
    0
 62
7
  6
CONTINUOUS
  0
LAYER
  5
6E
100
AcDbSymbolTableRecord
100
AcDbLayerTableRecord
  2
画層52
 70
    0
 62
7
  6
CONTINUOUS
  0
LAYER
  5
6F
100
AcDbSymbolTableRecord
100
AcDbLayerTableRecord
  2
画層53
 70
    0
 62
7
  6
CONTINUOUS
  0
LAYER
  5
70
100
AcDbSymbolTableRecord
100
AcDbLayerTableRecord
  2
画層54
 70
    0
 62
7
  6
CONTINUOUS
  0
LAYER
  5
71
100
AcDbSymbolTableRecord
100
AcDbLayerTableRecord
  2
画層55
 70
    0
 62
7
  6
CONTINUOUS
  0
LAYER
  5
72
100
AcDbSymbolTableRecord
100
AcDbLayerTableRecord
  2
画層56
 70
    0
 62
7
  6
CONTINUOUS
  0
LAYER
  5
73
100
AcDbSymbolTableRecord
100
AcDbLayerTableRecord
  2
画層57
 70
    0
 62
7
  6
CONTINUOUS
  0
LAYER
  5
74
100
AcDbSymbolTableRecord
100
AcDbLayerTableRecord
  2
画層58
 70
    0
 62
7
  6
CONTINUOUS
  0
LAYER
  5
75
100
AcDbSymbolTableRecord
100
AcDbLayerTableRecord
  2
画層59
 70
    0
 62
7
  6
CONTINUOUS
  0
LAYER
  5
76
100
AcDbSymbolTableRecord
100
AcDbLayerTableRecord
  2
画層60
 70
    0
 62
7
  6
CONTINUOUS
  0
LAYER
  5
77
100
AcDbSymbolTableRecord
100
AcDbLayerTableRecord
  2
画層61
 70
    0
 62
7
  6
CONTINUOUS
  0
LAYER
  5
78
100
AcDbSymbolTableRecord
100
AcDbLayerTableRecord
  2
画層62
 70
    0
 62
7
  6
CONTINUOUS
  0
LAYER
  5
79
100
AcDbSymbolTableRecord
100
AcDbLayerTableRecord
  2
画層63
 70
    0
 62
7
  6
CONTINUOUS
  0
LAYER
  5
7A
100
AcDbSymbolTableRecord
100
AcDbLayerTableRecord
  2
画層64
 70
    0
 62
7
  6
CONTINUOUS
  0
LAYER
  5
7B
100
AcDbSymbolTableRecord
100
AcDbLayerTableRecord
  2
画層65
 70
    0
 62
7
  6
CONTINUOUS
  0
LAYER
  5
7C
100
AcDbSymbolTableRecord
100
AcDbLayerTableRecord
  2
画層66
 70
    0
 62
7
  6
CONTINUOUS
  0
LAYER
  5
7D
100
AcDbSymbolTableRecord
100
AcDbLayerTableRecord
  2
画層67
 70
    0
 62
7
  6
CONTINUOUS
  0
LAYER
  5
7E
100
AcDbSymbolTableRecord
100
AcDbLayerTableRecord
  2
画層68
 70
    0
 62
7
  6
CONTINUOUS
  0
LAYER
  5
7F
100
AcDbSymbolTableRecord
100
AcDbLayerTableRecord
  2
画層69
 70
    0
 62
7
  6
CONTINUOUS
  0
LAYER
  5
80
100
AcDbSymbolTableRecord
100
AcDbLayerTableRecord
  2
画層70
 70
    0
 62
7
  6
CONTINUOUS
  0
LAYER
  5
81
100
AcDbSymbolTableRecord
100
AcDbLayerTableRecord
  2
画層71
 70
    0
 62
7
  6
CONTINUOUS
  0
LAYER
  5
82
100
AcDbSymbolTableRecord
100
AcDbLayerTableRecord
  2
画層72
 70
    0
 62
7
  6
CONTINUOUS
  0
LAYER
  5
83
100
AcDbSymbolTableRecord
100
AcDbLayerTableRecord
  2
画層73
 70
    0
 62
7
  6
CONTINUOUS
  0
LAYER
  5
84
100
AcDbSymbolTableRecord
100
AcDbLayerTableRecord
  2
画層74
 70
    0
 62
7
  6
CONTINUOUS
  0
LAYER
  5
85
100
AcDbSymbolTableRecord
100
AcDbLayerTableRecord
  2
画層75
 70
    0
 62
7
  6
CONTINUOUS
  0
LAYER
  5
86
100
AcDbSymbolTableRecord
100
AcDbLayerTableRecord
  2
画層76
 70
    0
 62
7
  6
CONTINUOUS
  0
LAYER
  5
87
100
AcDbSymbolTableRecord
100
AcDbLayerTableRecord
  2
画層77
 70
    0
 62
7
  6
CONTINUOUS
  0
LAYER
  5
88
100
AcDbSymbolTableRecord
100
AcDbLayerTableRecord
  2
画層78
 70
    0
 62
7
  6
CONTINUOUS
  0
LAYER
  5
89
100
AcDbSymbolTableRecord
100
AcDbLayerTableRecord
  2
画層79
 70
    0
 62
7
  6
CONTINUOUS
  0
LAYER
  5
8A
100
AcDbSymbolTableRecord
100
AcDbLayerTableRecord
  2
画層80
 70
    0
 62
7
  6
CONTINUOUS
  0
LAYER
  5
8B
100
AcDbSymbolTableRecord
100
AcDbLayerTableRecord
  2
画層81
 70
    0
 62
7
  6
CONTINUOUS
  0
LAYER
  5
8C
100
AcDbSymbolTableRecord
100
AcDbLayerTableRecord
  2
画層82
 70
    0
 62
7
  6
CONTINUOUS
  0
LAYER
  5
8D
100
AcDbSymbolTableRecord
100
AcDbLayerTableRecord
  2
画層83
 70
    0
 62
7
  6
CONTINUOUS
  0
LAYER
  5
8E
100
AcDbSymbolTableRecord
100
AcDbLayerTableRecord
  2
画層84
 70
    0
 62
7
  6
CONTINUOUS
  0
LAYER
  5
8F
100
AcDbSymbolTableRecord
100
AcDbLayerTableRecord
  2
画層85
 70
    0
 62
7
  6
CONTINUOUS
  0
LAYER
  5
90
100
AcDbSymbolTableRecord
100
AcDbLayerTableRecord
  2
画層86
 70
    0
 62
7
  6
CONTINUOUS
  0
LAYER
  5
91
100
AcDbSymbolTableRecord
100
AcDbLayerTableRecord
  2
画層87
 70
    0
 62
7
  6
CONTINUOUS
  0
LAYER
  5
92
100
AcDbSymbolTableRecord
100
AcDbLayerTableRecord
  2
画層88
 70
    0
 62
7
  6
CONTINUOUS
  0
LAYER
  5
93
100
AcDbSymbolTableRecord
100
AcDbLayerTableRecord
  2
画層89
 70
    0
 62
7
  6
CONTINUOUS
  0
LAYER
  5
94
100
AcDbSymbolTableRecord
100
AcDbLayerTableRecord
  2
画層90
 70
    0
 62
7
  6
CONTINUOUS
  0
LAYER
  5
95
100
AcDbSymbolTableRecord
100
AcDbLayerTableRecord
  2
画層91
 70
    0
 62
7
  6
CONTINUOUS
  0
LAYER
  5
96
100
AcDbSymbolTableRecord
100
AcDbLayerTableRecord
  2
画層92
 70
    0
 62
7
  6
CONTINUOUS
  0
LAYER
  5
97
100
AcDbSymbolTableRecord
100
AcDbLayerTableRecord
  2
画層93
 70
    0
 62
7
  6
CONTINUOUS
  0
LAYER
  5
98
100
AcDbSymbolTableRecord
100
AcDbLayerTableRecord
  2
画層94
 70
    0
 62
7
  6
CONTINUOUS
  0
LAYER
  5
99
100
AcDbSymbolTableRecord
100
AcDbLayerTableRecord
  2
画層95
 70
    0
 62
7
  6
CONTINUOUS
  0
LAYER
  5
9A
100
AcDbSymbolTableRecord
100
AcDbLayerTableRecord
  2
画層96
 70
    0
 62
7
  6
CONTINUOUS
  0
LAYER
  5
9B
100
AcDbSymbolTableRecord
100
AcDbLayerTableRecord
  2
画層97
 70
    0
 62
7
  6
CONTINUOUS
  0
LAYER
  5
9C
100
AcDbSymbolTableRecord
100
AcDbLayerTableRecord
  2
画層98
 70
    0
 62
7
  6
CONTINUOUS
  0
LAYER
  5
9D
100
AcDbSymbolTableRecord
100
AcDbLayerTableRecord
  2
画層99
 70
    0
 62
7
  6
CONTINUOUS
  0
LAYER
  5
9E
100
AcDbSymbolTableRecord
100
AcDbLayerTableRecord
  2
画層100
 70
    0
 62
7
  6
CONTINUOUS
  0
LAYER
  5
9F
100
AcDbSymbolTableRecord
100
AcDbLayerTableRecord
  2
画層101
 70
    0
 62
7
  6
CONTINUOUS
  0
LAYER
  5
A0
100
AcDbSymbolTableRecord
100
AcDbLayerTableRecord
  2
画層102
 70
    0
 62
7
  6
CONTINUOUS
  0
LAYER
  5
A1
100
AcDbSymbolTableRecord
100
AcDbLayerTableRecord
  2
画層103
 70
    0
 62
7
  6
CONTINUOUS
  0
LAYER
  5
A2
100
AcDbSymbolTableRecord
100
AcDbLayerTableRecord
  2
画層104
 70
    0
 62
7
  6
CONTINUOUS
  0
LAYER
  5
A3
100
AcDbSymbolTableRecord
100
AcDbLayerTableRecord
  2
画層105
 70
    0
 62
7
  6
CONTINUOUS
  0
LAYER
  5
A4
100
AcDbSymbolTableRecord
100
AcDbLayerTableRecord
  2
画層106
 70
    0
 62
7
  6
CONTINUOUS
  0
LAYER
  5
A5
100
AcDbSymbolTableRecord
100
AcDbLayerTableRecord
  2
画層107
 70
    0
 62
7
  6
CONTINUOUS
  0
LAYER
  5
A6
100
AcDbSymbolTableRecord
100
AcDbLayerTableRecord
  2
画層108
 70
    0
 62
7
  6
CONTINUOUS
  0
LAYER
  5
A7
100
AcDbSymbolTableRecord
100
AcDbLayerTableRecord
  2
画層109
 70
    0
 62
7
  6
CONTINUOUS
  0
LAYER
  5
A8
100
AcDbSymbolTableRecord
100
AcDbLayerTableRecord
  2
画層110
 70
    0
 62
7
  6
CONTINUOUS
  0
LAYER
  5
A9
100
AcDbSymbolTableRecord
100
AcDbLayerTableRecord
  2
画層111
 70
    0
 62
7
  6
CONTINUOUS
  0
LAYER
  5
AA
100
AcDbSymbolTableRecord
100
AcDbLayerTableRecord
  2
画層112
 70
    0
 62
7
  6
CONTINUOUS
  0
LAYER
  5
AB
100
AcDbSymbolTableRecord
100
AcDbLayerTableRecord
  2
画層113
 70
    0
 62
7
  6
CONTINUOUS
  0
LAYER
  5
AC
100
AcDbSymbolTableRecord
100
AcDbLayerTableRecord
  2
画層114
 70
    0
 62
7
  6
CONTINUOUS
  0
LAYER
  5
AD
100
AcDbSymbolTableRecord
100
AcDbLayerTableRecord
  2
画層115
 70
    0
 62
7
  6
CONTINUOUS
  0
LAYER
  5
AE
100
AcDbSymbolTableRecord
100
AcDbLayerTableRecord
  2
画層116
 70
    0
 62
7
  6
CONTINUOUS
  0
LAYER
  5
AF
100
AcDbSymbolTableRecord
100
AcDbLayerTableRecord
  2
画層117
 70
    0
 62
7
  6
CONTINUOUS
  0
LAYER
  5
B0
100
AcDbSymbolTableRecord
100
AcDbLayerTableRecord
  2
画層118
 70
    0
 62
7
  6
CONTINUOUS
  0
LAYER
  5
B1
100
AcDbSymbolTableRecord
100
AcDbLayerTableRecord
  2
画層119
 70
    0
 62
7
  6
CONTINUOUS
  0
LAYER
  5
B2
100
AcDbSymbolTableRecord
100
AcDbLayerTableRecord
  2
画層120
 70
    0
 62
7
  6
CONTINUOUS
  0
LAYER
  5
B3
100
AcDbSymbolTableRecord
100
AcDbLayerTableRecord
  2
画層121
 70
    0
 62
7
  6
CONTINUOUS
  0
LAYER
  5
B4
100
AcDbSymbolTableRecord
100
AcDbLayerTableRecord
  2
画層122
 70
    0
 62
7
  6
CONTINUOUS
  0
LAYER
  5
B5
100
AcDbSymbolTableRecord
100
AcDbLayerTableRecord
  2
画層123
 70
    0
 62
7
  6
CONTINUOUS
  0
LAYER
  5
B6
100
AcDbSymbolTableRecord
100
AcDbLayerTableRecord
  2
画層124
 70
    0
 62
7
  6
CONTINUOUS
  0
LAYER
  5
B7
100
AcDbSymbolTableRecord
100
AcDbLayerTableRecord
  2
画層125
 70
    0
 62
7
  6
CONTINUOUS
  0
LAYER
  5
B8
100
AcDbSymbolTableRecord
100
AcDbLayerTableRecord
  2
画層126
 70
    0
 62
7
  6
CONTINUOUS
  0
LAYER
  5
B9
100
AcDbSymbolTableRecord
100
AcDbLayerTableRecord
  2
画層127
 70
    0
 62
7
  6
CONTINUOUS
  0
LAYER
  5
BA
100
AcDbSymbolTableRecord
100
AcDbLayerTableRecord
  2
画層128
 70
    0
 62
7
  6
CONTINUOUS
  0
LAYER
  5
BB
100
AcDbSymbolTableRecord
100
AcDbLayerTableRecord
  2
画層129
 70
    0
 62
7
  6
CONTINUOUS
  0
LAYER
  5
BC
100
AcDbSymbolTableRecord
100
AcDbLayerTableRecord
  2
画層130
 70
    0
 62
7
  6
CONTINUOUS
  0
LAYER
  5
BD
100
AcDbSymbolTableRecord
100
AcDbLayerTableRecord
  2
画層131
 70
    0
 62
7
  6
CONTINUOUS
  0
LAYER
  5
BE
100
AcDbSymbolTableRecord
100
AcDbLayerTableRecord
  2
画層132
 70
    0
 62
7
  6
CONTINUOUS
  0
LAYER
  5
BF
100
AcDbSymbolTableRecord
100
AcDbLayerTableRecord
  2
画層133
 70
    0
 62
7
  6
CONTINUOUS
  0
LAYER
  5
C0
100
AcDbSymbolTableRecord
100
AcDbLayerTableRecord
  2
画層134
 70
    0
 62
7
  6
CONTINUOUS
  0
LAYER
  5
C1
100
AcDbSymbolTableRecord
100
AcDbLayerTableRecord
  2
画層135
 70
    0
 62
7
  6
CONTINUOUS
  0
LAYER
  5
C2
100
AcDbSymbolTableRecord
100
AcDbLayerTableRecord
  2
画層136
 70
    0
 62
7
  6
CONTINUOUS
  0
LAYER
  5
C3
100
AcDbSymbolTableRecord
100
AcDbLayerTableRecord
  2
画層137
 70
    0
 62
7
  6
CONTINUOUS
  0
LAYER
  5
C4
100
AcDbSymbolTableRecord
100
AcDbLayerTableRecord
  2
画層138
 70
    0
 62
7
  6
CONTINUOUS
  0
LAYER
  5
C5
100
AcDbSymbolTableRecord
100
AcDbLayerTableRecord
  2
画層139
 70
    0
 62
7
  6
CONTINUOUS
  0
LAYER
  5
C6
100
AcDbSymbolTableRecord
100
AcDbLayerTableRecord
  2
画層140
 70
    0
 62
7
  6
CONTINUOUS
  0
LAYER
  5
C7
100
AcDbSymbolTableRecord
100
AcDbLayerTableRecord
  2
画層141
 70
    0
 62
7
  6
CONTINUOUS
  0
LAYER
  5
C8
100
AcDbSymbolTableRecord
100
AcDbLayerTableRecord
  2
画層142
 70
    0
 62
7
  6
CONTINUOUS
  0
LAYER
  5
C9
100
AcDbSymbolTableRecord
100
AcDbLayerTableRecord
  2
画層143
 70
    0
 62
7
  6
CONTINUOUS
  0
LAYER
  5
CA
100
AcDbSymbolTableRecord
100
AcDbLayerTableRecord
  2
画層144
 70
    0
 62
7
  6
CONTINUOUS
  0
LAYER
  5
CB
100
AcDbSymbolTableRecord
100
AcDbLayerTableRecord
  2
画層145
 70
    0
 62
7
  6
CONTINUOUS
  0
LAYER
  5
CC
100
AcDbSymbolTableRecord
100
AcDbLayerTableRecord
  2
画層146
 70
    0
 62
7
  6
CONTINUOUS
  0
LAYER
  5
CD
100
AcDbSymbolTableRecord
100
AcDbLayerTableRecord
  2
画層147
 70
    0
 62
7
  6
CONTINUOUS
  0
LAYER
  5
CE
100
AcDbSymbolTableRecord
100
AcDbLayerTableRecord
  2
画層148
 70
    0
 62
7
  6
CONTINUOUS
  0
LAYER
  5
CF
100
AcDbSymbolTableRecord
100
AcDbLayerTableRecord
  2
画層149
 70
    0
 62
7
  6
CONTINUOUS
  0
LAYER
  5
D0
100
AcDbSymbolTableRecord
100
AcDbLayerTableRecord
  2
画層150
 70
    0
 62
7
  6
CONTINUOUS
  0
LAYER
  5
D1
100
AcDbSymbolTableRecord
100
AcDbLayerTableRecord
  2
画層151
 70
    0
 62
7
  6
CONTINUOUS
  0
LAYER
  5
D2
100
AcDbSymbolTableRecord
100
AcDbLayerTableRecord
  2
画層152
 70
    0
 62
7
  6
CONTINUOUS
  0
LAYER
  5
D3
100
AcDbSymbolTableRecord
100
AcDbLayerTableRecord
  2
画層153
 70
    0
 62
7
  6
CONTINUOUS
  0
LAYER
  5
D4
100
AcDbSymbolTableRecord
100
AcDbLayerTableRecord
  2
画層154
 70
    0
 62
7
  6
CONTINUOUS
  0
LAYER
  5
D5
100
AcDbSymbolTableRecord
100
AcDbLayerTableRecord
  2
画層155
 70
    0
 62
7
  6
CONTINUOUS
  0
LAYER
  5
D6
100
AcDbSymbolTableRecord
100
AcDbLayerTableRecord
  2
画層156
 70
    0
 62
7
  6
CONTINUOUS
  0
LAYER
  5
D7
100
AcDbSymbolTableRecord
100
AcDbLayerTableRecord
  2
画層157
 70
    0
 62
7
  6
CONTINUOUS
  0
LAYER
  5
D8
100
AcDbSymbolTableRecord
100
AcDbLayerTableRecord
  2
画層158
 70
    0
 62
7
  6
CONTINUOUS
  0
LAYER
  5
D9
100
AcDbSymbolTableRecord
100
AcDbLayerTableRecord
  2
画層159
 70
    0
 62
7
  6
CONTINUOUS
  0
LAYER
  5
DA
100
AcDbSymbolTableRecord
100
AcDbLayerTableRecord
  2
画層160
 70
    0
 62
7
  6
CONTINUOUS
  0
LAYER
  5
DB
100
AcDbSymbolTableRecord
100
AcDbLayerTableRecord
  2
画層161
 70
    0
 62
7
  6
CONTINUOUS
  0
LAYER
  5
DC
100
AcDbSymbolTableRecord
100
AcDbLayerTableRecord
  2
画層162
 70
    0
 62
7
  6
CONTINUOUS
  0
LAYER
  5
DD
100
AcDbSymbolTableRecord
100
AcDbLayerTableRecord
  2
画層163
 70
    0
 62
7
  6
CONTINUOUS
  0
LAYER
  5
DE
100
AcDbSymbolTableRecord
100
AcDbLayerTableRecord
  2
画層164
 70
    0
 62
7
  6
CONTINUOUS
  0
LAYER
  5
DF
100
AcDbSymbolTableRecord
100
AcDbLayerTableRecord
  2
画層165
 70
    0
 62
7
  6
CONTINUOUS
  0
LAYER
  5
E0
100
AcDbSymbolTableRecord
100
AcDbLayerTableRecord
  2
画層166
 70
    0
 62
7
  6
CONTINUOUS
  0
LAYER
  5
E1
100
AcDbSymbolTableRecord
100
AcDbLayerTableRecord
  2
画層167
 70
    0
 62
7
  6
CONTINUOUS
  0
LAYER
  5
E2
100
AcDbSymbolTableRecord
100
AcDbLayerTableRecord
  2
画層168
 70
    0
 62
7
  6
CONTINUOUS
  0
LAYER
  5
E3
100
AcDbSymbolTableRecord
100
AcDbLayerTableRecord
  2
画層169
 70
    0
 62
7
  6
CONTINUOUS
  0
LAYER
  5
E4
100
AcDbSymbolTableRecord
100
AcDbLayerTableRecord
  2
画層170
 70
    0
 62
7
  6
CONTINUOUS
  0
LAYER
  5
E5
100
AcDbSymbolTableRecord
100
AcDbLayerTableRecord
  2
画層171
 70
    0
 62
7
  6
CONTINUOUS
  0
LAYER
  5
E6
100
AcDbSymbolTableRecord
100
AcDbLayerTableRecord
  2
画層172
 70
    0
 62
7
  6
CONTINUOUS
  0
LAYER
  5
E7
100
AcDbSymbolTableRecord
100
AcDbLayerTableRecord
  2
画層173
 70
    0
 62
7
  6
CONTINUOUS
  0
LAYER
  5
E8
100
AcDbSymbolTableRecord
100
AcDbLayerTableRecord
  2
画層174
 70
    0
 62
7
  6
CONTINUOUS
  0
LAYER
  5
E9
100
AcDbSymbolTableRecord
100
AcDbLayerTableRecord
  2
画層175
 70
    0
 62
7
  6
CONTINUOUS
  0
LAYER
  5
EA
100
AcDbSymbolTableRecord
100
AcDbLayerTableRecord
  2
画層176
 70
    0
 62
7
  6
CONTINUOUS
  0
LAYER
  5
EB
100
AcDbSymbolTableRecord
100
AcDbLayerTableRecord
  2
画層177
 70
    0
 62
7
  6
CONTINUOUS
  0
LAYER
  5
EC
100
AcDbSymbolTableRecord
100
AcDbLayerTableRecord
  2
画層178
 70
    0
 62
7
  6
CONTINUOUS
  0
LAYER
  5
ED
100
AcDbSymbolTableRecord
100
AcDbLayerTableRecord
  2
画層179
 70
    0
 62
7
  6
CONTINUOUS
  0
LAYER
  5
EE
100
AcDbSymbolTableRecord
100
AcDbLayerTableRecord
  2
画層180
 70
    0
 62
7
  6
CONTINUOUS
  0
LAYER
  5
EF
100
AcDbSymbolTableRecord
100
AcDbLayerTableRecord
  2
画層181
 70
    0
 62
7
  6
CONTINUOUS
  0
LAYER
  5
F0
100
AcDbSymbolTableRecord
100
AcDbLayerTableRecord
  2
画層182
 70
    0
 62
7
  6
CONTINUOUS
  0
LAYER
  5
F1
100
AcDbSymbolTableRecord
100
AcDbLayerTableRecord
  2
画層183
 70
    0
 62
7
  6
CONTINUOUS
  0
LAYER
  5
F2
100
AcDbSymbolTableRecord
100
AcDbLayerTableRecord
  2
画層184
 70
    0
 62
7
  6
CONTINUOUS
  0
LAYER
  5
F3
100
AcDbSymbolTableRecord
100
AcDbLayerTableRecord
  2
画層185
 70
    0
 62
7
  6
CONTINUOUS
  0
LAYER
  5
F4
100
AcDbSymbolTableRecord
100
AcDbLayerTableRecord
  2
画層186
 70
    0
 62
7
  6
CONTINUOUS
  0
LAYER
  5
F5
100
AcDbSymbolTableRecord
100
AcDbLayerTableRecord
  2
画層187
 70
    0
 62
7
  6
CONTINUOUS
  0
LAYER
  5
F6
100
AcDbSymbolTableRecord
100
AcDbLayerTableRecord
  2
画層188
 70
    0
 62
7
  6
CONTINUOUS
  0
LAYER
  5
F7
100
AcDbSymbolTableRecord
100
AcDbLayerTableRecord
  2
画層189
 70
    0
 62
7
  6
CONTINUOUS
  0
LAYER
  5
F8
100
AcDbSymbolTableRecord
100
AcDbLayerTableRecord
  2
画層190
 70
    0
 62
7
  6
CONTINUOUS
  0
LAYER
  5
F9
100
AcDbSymbolTableRecord
100
AcDbLayerTableRecord
  2
画層191
 70
    0
 62
7
  6
CONTINUOUS
  0
LAYER
  5
FA
100
AcDbSymbolTableRecord
100
AcDbLayerTableRecord
  2
画層192
 70
    0
 62
7
  6
CONTINUOUS
  0
LAYER
  5
FB
100
AcDbSymbolTableRecord
100
AcDbLayerTableRecord
  2
画層193
 70
    0
 62
7
  6
CONTINUOUS
  0
LAYER
  5
FC
100
AcDbSymbolTableRecord
100
AcDbLayerTableRecord
  2
画層194
 70
    0
 62
7
  6
CONTINUOUS
  0
LAYER
  5
FD
100
AcDbSymbolTableRecord
100
AcDbLayerTableRecord
  2
画層195
 70
    0
 62
7
  6
CONTINUOUS
  0
LAYER
  5
FE
100
AcDbSymbolTableRecord
100
AcDbLayerTableRecord
  2
画層196
 70
    0
 62
7
  6
CONTINUOUS
  0
LAYER
  5
FF
100
AcDbSymbolTableRecord
100
AcDbLayerTableRecord
  2
画層197
 70
    0
 62
7
  6
CONTINUOUS
  0
LAYER
  5
100
100
AcDbSymbolTableRecord
100
AcDbLayerTableRecord
  2
画層198
 70
    0
 62
7
  6
CONTINUOUS
  0
LAYER
  5
101
100
AcDbSymbolTableRecord
100
AcDbLayerTableRecord
  2
画層199
 70
    0
 62
7
  6
CONTINUOUS
  0
LAYER
  5
102
100
AcDbSymbolTableRecord
100
AcDbLayerTableRecord
  2
画層200
 70
    0
 62
7
  6
CONTINUOUS
  0
LAYER
  5
103
100
AcDbSymbolTableRecord
100
AcDbLayerTableRecord
  2
画層201
 70
    0
 62
7
  6
CONTINUOUS
  0
LAYER
  5
104
100
AcDbSymbolTableRecord
100
AcDbLayerTableRecord
  2
画層202
 70
    0
 62
7
  6
CONTINUOUS
  0
LAYER
  5
105
100
AcDbSymbolTableRecord
100
AcDbLayerTableRecord
  2
画層203
 70
    0
 62
7
  6
CONTINUOUS
  0
LAYER
  5
106
100
AcDbSymbolTableRecord
100
AcDbLayerTableRecord
  2
画層204
 70
    0
 62
7
  6
CONTINUOUS
  0
LAYER
  5
107
100
AcDbSymbolTableRecord
100
AcDbLayerTableRecord
  2
画層205
 70
    0
 62
7
  6
CONTINUOUS
  0
LAYER
  5
108
100
AcDbSymbolTableRecord
100
AcDbLayerTableRecord
  2
画層206
 70
    0
 62
7
  6
CONTINUOUS
  0
LAYER
  5
109
100
AcDbSymbolTableRecord
100
AcDbLayerTableRecord
  2
画層207
 70
    0
 62
7
  6
CONTINUOUS
  0
LAYER
  5
10A
100
AcDbSymbolTableRecord
100
AcDbLayerTableRecord
  2
画層208
 70
    0
 62
7
  6
CONTINUOUS
  0
LAYER
  5
10B
100
AcDbSymbolTableRecord
100
AcDbLayerTableRecord
  2
画層209
 70
    0
 62
7
  6
CONTINUOUS
  0
LAYER
  5
10C
100
AcDbSymbolTableRecord
100
AcDbLayerTableRecord
  2
画層210
 70
    0
 62
7
  6
CONTINUOUS
  0
LAYER
  5
10D
100
AcDbSymbolTableRecord
100
AcDbLayerTableRecord
  2
画層211
 70
    0
 62
7
  6
CONTINUOUS
  0
LAYER
  5
10E
100
AcDbSymbolTableRecord
100
AcDbLayerTableRecord
  2
画層212
 70
    0
 62
7
  6
CONTINUOUS
  0
LAYER
  5
10F
100
AcDbSymbolTableRecord
100
AcDbLayerTableRecord
  2
画層213
 70
    0
 62
7
  6
CONTINUOUS
  0
LAYER
  5
110
100
AcDbSymbolTableRecord
100
AcDbLayerTableRecord
  2
画層214
 70
    0
 62
7
  6
CONTINUOUS
  0
LAYER
  5
111
100
AcDbSymbolTableRecord
100
AcDbLayerTableRecord
  2
画層215
 70
    0
 62
7
  6
CONTINUOUS
  0
LAYER
  5
112
100
AcDbSymbolTableRecord
100
AcDbLayerTableRecord
  2
画層216
 70
    0
 62
7
  6
CONTINUOUS
  0
LAYER
  5
113
100
AcDbSymbolTableRecord
100
AcDbLayerTableRecord
  2
画層217
 70
    0
 62
7
  6
CONTINUOUS
  0
LAYER
  5
114
100
AcDbSymbolTableRecord
100
AcDbLayerTableRecord
  2
画層218
 70
    0
 62
7
  6
CONTINUOUS
  0
LAYER
  5
115
100
AcDbSymbolTableRecord
100
AcDbLayerTableRecord
  2
画層219
 70
    0
 62
7
  6
CONTINUOUS
  0
LAYER
  5
116
100
AcDbSymbolTableRecord
100
AcDbLayerTableRecord
  2
画層220
 70
    0
 62
7
  6
CONTINUOUS
  0
LAYER
  5
117
100
AcDbSymbolTableRecord
100
AcDbLayerTableRecord
  2
画層221
 70
    0
 62
7
  6
CONTINUOUS
  0
LAYER
  5
118
100
AcDbSymbolTableRecord
100
AcDbLayerTableRecord
  2
画層222
 70
    0
 62
7
  6
CONTINUOUS
  0
LAYER
  5
119
100
AcDbSymbolTableRecord
100
AcDbLayerTableRecord
  2
画層223
 70
    0
 62
7
  6
CONTINUOUS
  0
LAYER
  5
11A
100
AcDbSymbolTableRecord
100
AcDbLayerTableRecord
  2
画層224
 70
    0
 62
7
  6
CONTINUOUS
  0
LAYER
  5
11B
100
AcDbSymbolTableRecord
100
AcDbLayerTableRecord
  2
画層225
 70
    0
 62
7
  6
CONTINUOUS
  0
LAYER
  5
11C
100
AcDbSymbolTableRecord
100
AcDbLayerTableRecord
  2
画層226
 70
    0
 62
7
  6
CONTINUOUS
  0
LAYER
  5
11D
100
AcDbSymbolTableRecord
100
AcDbLayerTableRecord
  2
画層227
 70
    0
 62
7
  6
CONTINUOUS
  0
LAYER
  5
11E
100
AcDbSymbolTableRecord
100
AcDbLayerTableRecord
  2
画層228
 70
    0
 62
7
  6
CONTINUOUS
  0
LAYER
  5
11F
100
AcDbSymbolTableRecord
100
AcDbLayerTableRecord
  2
画層229
 70
    0
 62
7
  6
CONTINUOUS
  0
LAYER
  5
120
100
AcDbSymbolTableRecord
100
AcDbLayerTableRecord
  2
画層230
 70
    0
 62
7
  6
CONTINUOUS
  0
LAYER
  5
121
100
AcDbSymbolTableRecord
100
AcDbLayerTableRecord
  2
画層231
 70
    0
 62
7
  6
CONTINUOUS
  0
LAYER
  5
122
100
AcDbSymbolTableRecord
100
AcDbLayerTableRecord
  2
画層232
 70
    0
 62
7
  6
CONTINUOUS
  0
LAYER
  5
123
100
AcDbSymbolTableRecord
100
AcDbLayerTableRecord
  2
画層233
 70
    0
 62
7
  6
CONTINUOUS
  0
LAYER
  5
124
100
AcDbSymbolTableRecord
100
AcDbLayerTableRecord
  2
画層234
 70
    0
 62
7
  6
CONTINUOUS
  0
LAYER
  5
125
100
AcDbSymbolTableRecord
100
AcDbLayerTableRecord
  2
画層235
 70
    0
 62
7
  6
CONTINUOUS
  0
LAYER
  5
126
100
AcDbSymbolTableRecord
100
AcDbLayerTableRecord
  2
画層236
 70
    0
 62
7
  6
CONTINUOUS
  0
LAYER
  5
127
100
AcDbSymbolTableRecord
100
AcDbLayerTableRecord
  2
画層237
 70
    0
 62
7
  6
CONTINUOUS
  0
LAYER
  5
128
100
AcDbSymbolTableRecord
100
AcDbLayerTableRecord
  2
画層238
 70
    0
 62
7
  6
CONTINUOUS
  0
LAYER
  5
129
100
AcDbSymbolTableRecord
100
AcDbLayerTableRecord
  2
画層239
 70
    0
 62
7
  6
CONTINUOUS
  0
LAYER
  5
12A
100
AcDbSymbolTableRecord
100
AcDbLayerTableRecord
  2
画層240
 70
    0
 62
7
  6
CONTINUOUS
  0
LAYER
  5
12B
100
AcDbSymbolTableRecord
100
AcDbLayerTableRecord
  2
画層241
 70
    0
 62
7
  6
CONTINUOUS
  0
LAYER
  5
12C
100
AcDbSymbolTableRecord
100
AcDbLayerTableRecord
  2
画層242
 70
    0
 62
7
  6
CONTINUOUS
  0
LAYER
  5
12D
100
AcDbSymbolTableRecord
100
AcDbLayerTableRecord
  2
画層243
 70
    0
 62
7
  6
CONTINUOUS
  0
LAYER
  5
12E
100
AcDbSymbolTableRecord
100
AcDbLayerTableRecord
  2
画層244
 70
    0
 62
7
  6
CONTINUOUS
  0
LAYER
  5
12F
100
AcDbSymbolTableRecord
100
AcDbLayerTableRecord
  2
画層245
 70
    0
 62
7
  6
CONTINUOUS
  0
LAYER
  5
130
100
AcDbSymbolTableRecord
100
AcDbLayerTableRecord
  2
画層246
 70
    0
 62
7
  6
CONTINUOUS
  0
LAYER
  5
131
100
AcDbSymbolTableRecord
100
AcDbLayerTableRecord
  2
画層247
 70
    0
 62
7
  6
CONTINUOUS
  0
LAYER
  5
132
100
AcDbSymbolTableRecord
100
AcDbLayerTableRecord
  2
画層248
 70
    0
 62
7
  6
CONTINUOUS
  0
LAYER
  5
133
100
AcDbSymbolTableRecord
100
AcDbLayerTableRecord
  2
画層249
 70
    0
 62
7
  6
CONTINUOUS
  0
LAYER
  5
134
100
AcDbSymbolTableRecord
100
AcDbLayerTableRecord
  2
画層250
 70
    0
 62
7
  6
CONTINUOUS
  0
LAYER
  5
135
100
AcDbSymbolTableRecord
100
AcDbLayerTableRecord
  2
画層251
 70
    0
 62
7
  6
CONTINUOUS
  0
LAYER
  5
136
100
AcDbSymbolTableRecord
100
AcDbLayerTableRecord
  2
画層252
 70
    0
 62
7
  6
CONTINUOUS
  0
LAYER
  5
137
100
AcDbSymbolTableRecord
100
AcDbLayerTableRecord
  2
画層253
 70
    0
 62
7
  6
CONTINUOUS
  0
LAYER
  5
138
100
AcDbSymbolTableRecord
100
AcDbLayerTableRecord
  2
画層254
 70
    0
 62
7
  6
CONTINUOUS
  0
LAYER
  5
139
100
AcDbSymbolTableRecord
100
AcDbLayerTableRecord
  2
画層255
 70
    0
 62
7
  6
CONTINUOUS
  0
ENDTAB
  0
TABLE
  2
STYLE
  5
4
100
AcDbSymbolTable
 70
     1
  0
STYLE
  5
13A
100
AcDbSymbolTableRecord
100
AcDbTextStyleTableRecord
  2
Standard
 70
     0
 40
0.0
 41
1.0
 50
0.0
 71
     0
 42
3.2
  3
TXT
  4
BIGFONT
  0
STYLE
  5
13B
100
AcDbSymbolTableRecord
100
AcDbTextStyleTableRecord
  2
Font_0
 70
     0
 40
0.0
 41
1.0
 50
0.0
 71
     0
 42
3.2
  3
MS Gothic.ttf
  4

1001
ACAD
1000
MS Gothic
1071
  32817
  0
ENDTAB
  0
TABLE
  2
VIEW
  5
5
100
AcDbSymbolTable
 70
     0
  0
ENDTAB
  0
TABLE
  2
UCS
  5
6
100
AcDbSymbolTable
 70
     0
  0
ENDTAB
  0
TABLE
  2
APPID
  5
7
100
AcDbSymbolTable
 70
     1
  0
APPID
  5
13C
100
AcDbSymbolTableRecord
100
AcDbRegAppTableRecord
  2
ACAD
 70
     0
  0
ENDTAB
  0
TABLE
  2
DIMSTYLE
  5
8
100
AcDbSymbolTable
 70
     1
  0
DIMSTYLE
105
2A
100
AcDbSymbolTableRecord
100
AcDbDimStyleTableRecord
  2
STANDARD
 70
     0
  3

  4

  5

  6

  7

 40
1.0
 41
2.5
 42
2.0
 43
7.0
 44
1.25
 45
0.0
 46
0.0
 47
0.0
 48
0.0
 71
     0
 72
     0
 73
     0
 74
     0
 75
     0
 76
     0
 77
     1
 78
     0
140
2.5
141
2.5
142
0.0
143
0.0394
144
1.0
145
0.0
146
1.0
147
1.0
170
     0
171
     2
172
     0
173
     0
174
     1
175
     0
176
     0
177
     0
178
     0
270
     2
271
     2
272
     4
273
     2
274
     2
275
     0
280
     0
281
     0
282
     0
283
     1
284
     0
285
     0
286
     0
287
     3
288
     0
  0
ENDTAB
  0
TABLE
  2
BLOCK_RECORD
  5
9
100
AcDbSymbolTable
 70
     0
  0
BLOCK_RECORD
  5
13D
100
AcDbSymbolTableRecord
100
AcDbBlockTableRecord
  2
*MODEL_SPACE
  0
BLOCK_RECORD
  5
13E
100
AcDbSymbolTableRecord
100
AcDbBlockTableRecord
  2
*PAPER_SPACE
  0
ENDTAB
  0
ENDSEC
  0
SECTION
  2
BLOCKS
  0
BLOCK
  5
140
100
AcDbEntity
  8
0
100
AcDbBlockBegin
2
*MODEL_SPACE
 70
     0
 10
0.0
 20
0.0
 30
0.0
  3
*MODEL_SPACE
  1

  0
ENDBLK
  5
141
100
AcDbEntity
  8
0
100
AcDbBlockEnd
  0
BLOCK
  5
142
100
AcDbEntity
 67
     1
  8
0
100
AcDbBlockBegin
  2
*PAPER_SPACE
 70
     0
 10
0.0
 20
0.0
 30
0.0
  3
*PAPER_SPACE
  1

  0
ENDBLK
  5
143
100
AcDbEntity
 67
     1
  8
0
100
AcDbBlockEnd
  0
ENDSEC
  0
SECTION
  2
ENTITIES
  0
LINE
  5
144
100
AcDbEntity
  8
0
100
AcDbLine
  6
CONTINUOUS
 10
623
 20
352
 11
140
 21
352
  0
LINE
  5
145
100
AcDbEntity
  8
0
100
AcDbLine
  6
CONTINUOUS
 10
623
 20
220
 11
140
 21
220
  0
LINE
  5
146
100
AcDbEntity
  8
0
100
AcDbLine
  6
CONTINUOUS
 10
140
 20
352
 11
140
 21
220
  0
LINE
  5
147
100
AcDbEntity
  8
画層1
100
AcDbLine
  6
CONTINUOUS
 10
614
 20
207.853476666985
 11
614
 21
356.967239769176
  0
LINE
  5
148
100
AcDbEntity
  8
画層1
100
AcDbLine
  6
CONTINUOUS
 10
604.430791527754
 20
314
 11
623
 21
314
  0
LINE
  5
149
100
AcDbEntity
  8
画層1
100
AcDbLine
  6
CONTINUOUS
 10
605.417518878903
 20
258
 11
623
 21
258
  0
LINE
  5
14A
100
AcDbEntity
  8
画層1
100
AcDbLine
  6
CONTINUOUS
 10
149
 20
352
 11
149
 21
201.607840505206
  0
LINE
  5
14B
100
AcDbEntity
  8
画層1
100
AcDbLine
  6
CONTINUOUS
 10
140
 20
314
 11
161.550800738276
 21
314
  0
LINE
  5
14C
100
AcDbEntity
  8
画層1
100
AcDbLine
  6
CONTINUOUS
 10
140
 20
258
 11
158.924132529517
 21
258
  0
LINE
  5
14D
100
AcDbEntity
  8
0
100
AcDbLine
  6
CONTINUOUS
 10
151.25
 20
317.5
 11
146.75
 21
317.5
  0
LINE
  5
14E
100
AcDbEntity
  8
0
100
AcDbLine
  6
CONTINUOUS
 10
151.25
 20
310.5
 11
146.75
 21
310.5
  0
LINE
  5
14F
100
AcDbEntity
  8
0
100
AcDbLine
  6
CONTINUOUS
 10
154.25
 20
314.5
 11
154.25
 21
313.5
  0
LINE
  5
150
100
AcDbEntity
  8
0
100
AcDbLine
  6
CONTINUOUS
 10
143.75
 20
313.5
 11
143.75
 21
314.5
  0
ARC
  5
151
100
AcDbEntity
  8
0
100
AcDbCircle
  6
CONTINUOUS
 10
146.75
 20
314.5
 40
3
100
AcDbArc
 50
90
 51
180
  0
ARC
  5
152
100
AcDbEntity
  8
0
100
AcDbCircle
  6
CONTINUOUS
 10
146.75
 20
313.5
 40
3
100
AcDbArc
 50
180
 51
-90
  0
ARC
  5
153
100
AcDbEntity
  8
0
100
AcDbCircle
  6
CONTINUOUS
 10
151.25
 20
313.5
 40
3
100
AcDbArc
 50
-90
 51
0
  0
ARC
  5
154
100
AcDbEntity
  8
0
100
AcDbCircle
  6
CONTINUOUS
 10
151.25
 20
314.5
 40
3
100
AcDbArc
 50
0
 51
90
  0
LINE
  5
155
100
AcDbEntity
  8
0
100
AcDbLine
  6
CONTINUOUS
 10
151.25
 20
261.5
 11
146.75
 21
261.5
  0
LINE
  5
156
100
AcDbEntity
  8
0
100
AcDbLine
  6
CONTINUOUS
 10
151.25
 20
254.5
 11
146.75
 21
254.5
  0
LINE
  5
157
100
AcDbEntity
  8
0
100
AcDbLine
  6
CONTINUOUS
 10
154.25
 20
258.5
 11
154.25
 21
257.5
  0
LINE
  5
158
100
AcDbEntity
  8
0
100
AcDbLine
  6
CONTINUOUS
 10
143.75
 20
257.5
 11
143.75
 21
258.5
  0
ARC
  5
159
100
AcDbEntity
  8
0
100
AcDbCircle
  6
CONTINUOUS
 10
146.75
 20
258.5
 40
3
100
AcDbArc
 50
90
 51
180
  0
ARC
  5
15A
100
AcDbEntity
  8
0
100
AcDbCircle
  6
CONTINUOUS
 10
146.75
 20
257.5
 40
3
100
AcDbArc
 50
180
 51
-90
  0
ARC
  5
15B
100
AcDbEntity
  8
0
100
AcDbCircle
  6
CONTINUOUS
 10
151.25
 20
257.5
 40
3
100
AcDbArc
 50
-90
 51
0
  0
ARC
  5
15C
100
AcDbEntity
  8
0
100
AcDbCircle
  6
CONTINUOUS
 10
151.25
 20
258.5
 40
3
100
AcDbArc
 50
0
 51
90
  0
LINE
  5
15D
100
AcDbEntity
  8
0
100
AcDbLine
  6
CONTINUOUS
 10
616.25
 20
317.5
 11
611.75
 21
317.5
  0
LINE
  5
15E
100
AcDbEntity
  8
0
100
AcDbLine
  6
CONTINUOUS
 10
616.25
 20
310.5
 11
611.75
 21
310.5
  0
LINE
  5
15F
100
AcDbEntity
  8
0
100
AcDbLine
  6
CONTINUOUS
 10
619.25
 20
314.5
 11
619.25
 21
313.5
  0
LINE
  5
160
100
AcDbEntity
  8
0
100
AcDbLine
  6
CONTINUOUS
 10
608.75
 20
313.5
 11
608.75
 21
314.5
  0
ARC
  5
161
100
AcDbEntity
  8
0
100
AcDbCircle
  6
CONTINUOUS
 10
611.75
 20
314.5
 40
3
100
AcDbArc
 50
90
 51
180
  0
ARC
  5
162
100
AcDbEntity
  8
0
100
AcDbCircle
  6
CONTINUOUS
 10
611.75
 20
313.5
 40
3
100
AcDbArc
 50
180
 51
-90
  0
ARC
  5
163
100
AcDbEntity
  8
0
100
AcDbCircle
  6
CONTINUOUS
 10
616.25
 20
313.5
 40
3
100
AcDbArc
 50
-90
 51
0
  0
ARC
  5
164
100
AcDbEntity
  8
0
100
AcDbCircle
  6
CONTINUOUS
 10
616.25
 20
314.5
 40
3
100
AcDbArc
 50
0
 51
90
  0
LINE
  5
165
100
AcDbEntity
  8
0
100
AcDbLine
  6
CONTINUOUS
 10
616.25
 20
261.5
 11
611.75
 21
261.5
  0
LINE
  5
166
100
AcDbEntity
  8
0
100
AcDbLine
  6
CONTINUOUS
 10
616.25
 20
254.5
 11
611.75
 21
254.5
  0
LINE
  5
167
100
AcDbEntity
  8
0
100
AcDbLine
  6
CONTINUOUS
 10
619.25
 20
258.5
 11
619.25
 21
257.5
  0
LINE
  5
168
100
AcDbEntity
  8
0
100
AcDbLine
  6
CONTINUOUS
 10
608.75
 20
257.5
 11
608.75
 21
258.5
  0
ARC
  5
169
100
AcDbEntity
  8
0
100
AcDbCircle
  6
CONTINUOUS
 10
611.75
 20
258.5
 40
3
100
AcDbArc
 50
90
 51
180
  0
ARC
  5
16A
100
AcDbEntity
  8
0
100
AcDbCircle
  6
CONTINUOUS
 10
611.75
 20
257.5
 40
3
100
AcDbArc
 50
180
 51
-90
  0
ARC
  5
16B
100
AcDbEntity
  8
0
100
AcDbCircle
  6
CONTINUOUS
 10
616.25
 20
257.5
 40
3
100
AcDbArc
 50
-90
 51
0
  0
ARC
  5
16C
100
AcDbEntity
  8
0
100
AcDbCircle
  6
CONTINUOUS
 10
616.25
 20
258.5
 40
3
100
AcDbArc
 50
0
 51
90
  0
LINE
  5
16D
100
AcDbEntity
  8
0
100
AcDbLine
  6
CONTINUOUS
 10
623
 20
210
 11
623
 21
199
  0
LINE
  5
16E
100
AcDbEntity
  8
0
100
AcDbLine
  6
CONTINUOUS
 10
623
 20
200
 11
140
 21
200
  0
CIRCLE
  5
16F
100
AcDbEntity
  8
0
100
AcDbCircle
  6
CONTINUOUS
 10
623
 20
200
 40
0.5
  0
CIRCLE
  5
170
100
AcDbEntity
  8
0
100
AcDbCircle
  6
CONTINUOUS
 10
140
 20
200
 40
0.5
  0
TEXT
  5
171
100
AcDbEntity
  8
0
100
AcDbText
  6
CONTINUOUS
 10
375.5
 20
200.5
 40
8
  1
483
  7
Font_0
 72
1
 11
381.5
 21
200.5
100
AcDbText
  0
LINE
  5
172
100
AcDbEntity
  8
0
100
AcDbLine
  6
CONTINUOUS
 10
140
 20
210
 11
140
 21
199
  0
LINE
  5
173
100
AcDbEntity
  8
0
100
AcDbLine
  6
CONTINUOUS
 10
134.212060261365
 20
220
 11
123.212060261365
 21
220
  0
LINE
  5
174
100
AcDbEntity
  8
0
100
AcDbLine
  6
CONTINUOUS
 10
124.212060261365
 20
220
 11
124.212060261365
 21
352
  0
CIRCLE
  5
175
100
AcDbEntity
  8
0
100
AcDbCircle
  6
CONTINUOUS
 10
124.212060261365
 20
220
 40
0.5
  0
CIRCLE
  5
176
100
AcDbEntity
  8
0
100
AcDbCircle
  6
CONTINUOUS
 10
124.212060261365
 20
352
 40
0.5
  0
TEXT
  5
177
100
AcDbEntity
  8
0
100
AcDbText
  6
CONTINUOUS
 10
123.712060261365
 20
280
 40
8
  1
132
  7
Font_0
 50
90
 72
1
 11
123.712060261365
 21
286
100
AcDbText
  0
LINE
  5
178
100
AcDbEntity
  8
0
100
AcDbLine
  6
CONTINUOUS
 10
134.212060261365
 20
352
 11
123.212060261365
 21
352
  0
LWPOLYLINE
  5
179
100
AcDbEntity
  8
0
100
AcDbPolyline
  6
CONTINUOUS
 90
     4
 70
     1
 10
462.5
  20
246.483621649615
 10
451.5
  20
246.483621649615
 10
451.5
  20
235.483621649615
 10
462.5
  20
235.483621649615
  0
LWPOLYLINE
  5
17A
100
AcDbEntity
  8
0
100
AcDbPolyline
  6
CONTINUOUS
 90
     4
 70
     1
 10
462.5
  20
266.983621649615
 10
451.5
  20
266.983621649615
 10
451.5
  20
255.983621649615
 10
462.5
  20
255.983621649615
  0
LWPOLYLINE
  5
17B
100
AcDbEntity
  8
0
100
AcDbPolyline
  6
CONTINUOUS
 90
     4
 70
     1
 10
462.5
  20
287.483621649615
 10
451.5
  20
287.483621649615
 10
451.5
  20
276.483621649615
 10
462.5
  20
276.483621649615
  0
LWPOLYLINE
  5
17C
100
AcDbEntity
  8
0
100
AcDbPolyline
  6
CONTINUOUS
 90
     4
 70
     1
 10
462.5
  20
307.983621649615
 10
451.5
  20
307.983621649615
 10
451.5
  20
296.983621649615
 10
462.5
  20
296.983621649615
  0
LWPOLYLINE
  5
17D
100
AcDbEntity
  8
0
100
AcDbPolyline
  6
CONTINUOUS
 90
     4
 70
     1
 10
462.5
  20
328.483621649615
 10
451.5
  20
328.483621649615
 10
451.5
  20
317.483621649615
 10
462.5
  20
317.483621649615
  0
LWPOLYLINE
  5
17E
100
AcDbEntity
  8
0
100
AcDbPolyline
  6
CONTINUOUS
 90
     4
 70
     1
 10
462
  20
327.98308676459
 10
452
  20
327.98308676459
 10
452
  20
317.98308676459
 10
462
  20
317.98308676459
  0
LWPOLYLINE
  5
17F
100
AcDbEntity
  8
0
100
AcDbPolyline
  6
CONTINUOUS
 90
     4
 70
     1
 10
462
  20
307.427671007441
 10
452
  20
307.427671007441
 10
452
  20
297.427671007441
 10
462
  20
297.427671007441
  0
LWPOLYLINE
  5
180
100
AcDbEntity
  8
0
100
AcDbPolyline
  6
CONTINUOUS
 90
     4
 70
     1
 10
462
  20
286.872255250291
 10
452
  20
286.872255250291
 10
452
  20
276.872255250291
 10
462
  20
276.872255250291
  0
LWPOLYLINE
  5
181
100
AcDbEntity
  8
0
100
AcDbPolyline
  6
CONTINUOUS
 90
     4
 70
     1
 10
462
  20
266.485326507545
 10
452
  20
266.485326507545
 10
452
  20
256.485326507545
 10
462
  20
256.485326507545
  0
LWPOLYLINE
  5
182
100
AcDbEntity
  8
0
100
AcDbPolyline
  6
CONTINUOUS
 90
     4
 70
     1
 10
462
  20
245.922726688651
 10
452
  20
245.922726688651
 10
452
  20
235.922726688651
 10
462
  20
235.922726688651
  0
LINE
  5
183
100
AcDbEntity
  8
画層1
100
AcDbLine
  6
CONTINUOUS
 10
305.5
 20
250.511819995685
 11
305.5
 21
230.824768868807
  0
LINE
  5
184
100
AcDbEntity
  8
画層1
100
AcDbLine
  6
CONTINUOUS
 10
343.5
 20
251.843311376247
 11
343.5
 21
231.014981923173
  0
LINE
  5
185
100
AcDbEntity
  8
画層1
100
AcDbLine
  6
CONTINUOUS
 10
362.5
 20
251.93841790343
 11
362.5
 21
231.680727613454
  0
LINE
  5
186
100
AcDbEntity
  8
画層1
100
AcDbLine
  6
CONTINUOUS
 10
381.5
 20
251.748204849064
 11
381.5
 21
231.205194977539
  0
LINE
  5
187
100
AcDbEntity
  8
画層1
100
AcDbLine
  6
CONTINUOUS
 10
419.5
 20
253.650335392724
 11
419.5
 21
231.585621086271
  0
LINE
  5
188
100
AcDbEntity
  8
画層1
100
AcDbLine
  6
CONTINUOUS
 10
438.5
 20
254.316081083005
 11
438.5
 21
231.300301504722
  0
LINE
  5
189
100
AcDbEntity
  8
0
100
AcDbLine
  6
CONTINUOUS
 10
623
 20
352
 11
623
 21
220
  0
LINE
  5
18A
100
AcDbEntity
  8
画層1
100
AcDbLine
  6
CONTINUOUS
 10
305.5
 20
311.621682924454
 11
305.5
 21
327.800367462559
  0
LINE
  5
18B
100
AcDbEntity
  8
画層1
100
AcDbLine
  6
CONTINUOUS
 10
324.5
 20
311.754295092799
 11
324.5
 21
328.86126480932
  0
LINE
  5
18C
100
AcDbEntity
  8
画層1
100
AcDbLine
  6
CONTINUOUS
 10
343.5
 20
309.897724735969
 11
343.5
 21
327.667755294214
  0
LINE
  5
18D
100
AcDbEntity
  8
画層1
100
AcDbLine
  6
CONTINUOUS
 10
362.5
 20
310.826009914384
 11
362.5
 21
326.341633610764
  0
LINE
  5
18E
100
AcDbEntity
  8
画層1
100
AcDbLine
  6
CONTINUOUS
 10
381.5
 20
311.356458587764
 11
381.5
 21
326.739470115799
  0
LINE
  5
18F
100
AcDbEntity
  8
画層1
100
AcDbLine
  6
CONTINUOUS
 10
400.5
 20
325.811184937371
 11
400.5
 21
313.983621649615
  0
LINE
  5
190
100
AcDbEntity
  8
画層1
100
AcDbLine
  6
CONTINUOUS
 10
419.5
 20
325.015511927301
 11
419.5
 21
315.202211469782
  0
LINE
  5
191
100
AcDbEntity
  8
画層1
100
AcDbLine
  6
CONTINUOUS
 10
438.5
 20
327.004694452477
 11
438.5
 21
316.528333153232
  0
LINE
  5
192
100
AcDbEntity
  8
画層1
100
AcDbLine
  6
CONTINUOUS
 10
304
 20
317.983621649615
 11
446.033890968176
 21
317.983621649615
  0
CIRCLE
  5
193
100
AcDbEntity
  8
0
100
AcDbCircle
  6
CONTINUOUS
 10
438.5
 20
317.983621649615
 40
2
  0
LINE
  5
194
100
AcDbEntity
  8
0
100
AcDbLine
  6
CONTINUOUS
 10
437.246687723893
 20
317.983621649615
 11
439.743534120691
 21
317.983621649615
  0
LINE
  5
195
100
AcDbEntity
  8
0
100
AcDbLine
  6
CONTINUOUS
 10
438.5
 20
319.11889567708
 11
438.5
 21
316.90550198807
  0
CIRCLE
  5
196
100
AcDbEntity
  8
0
100
AcDbCircle
  6
CONTINUOUS
 10
419.5
 20
317.983621649615
 40
2
  0
LINE
  5
197
100
AcDbEntity
  8
0
100
AcDbLine
  6
CONTINUOUS
 10
418.246687723893
 20
317.983621649615
 11
420.743534120691
 21
317.983621649615
  0
LINE
  5
198
100
AcDbEntity
  8
0
100
AcDbLine
  6
CONTINUOUS
 10
419.5
 20
319.11889567708
 11
419.5
 21
316.90550198807
  0
CIRCLE
  5
199
100
AcDbEntity
  8
0
100
AcDbCircle
  6
CONTINUOUS
 10
400.5
 20
317.983621649615
 40
2
  0
LINE
  5
19A
100
AcDbEntity
  8
0
100
AcDbLine
  6
CONTINUOUS
 10
399.246687723893
 20
317.983621649615
 11
401.743534120691
 21
317.983621649615
  0
LINE
  5
19B
100
AcDbEntity
  8
0
100
AcDbLine
  6
CONTINUOUS
 10
400.5
 20
319.11889567708
 11
400.5
 21
316.90550198807
  0
CIRCLE
  5
19C
100
AcDbEntity
  8
0
100
AcDbCircle
  6
CONTINUOUS
 10
381.5
 20
317.983621649615
 40
2
  0
LINE
  5
19D
100
AcDbEntity
  8
0
100
AcDbLine
  6
CONTINUOUS
 10
380.246687723893
 20
317.983621649615
 11
382.743534120691
 21
317.983621649615
  0
LINE
  5
19E
100
AcDbEntity
  8
0
100
AcDbLine
  6
CONTINUOUS
 10
381.5
 20
319.11889567708
 11
381.5
 21
316.90550198807
  0
CIRCLE
  5
19F
100
AcDbEntity
  8
0
100
AcDbCircle
  6
CONTINUOUS
 10
362.5
 20
317.983621649615
 40
2
  0
LINE
  5
1A0
100
AcDbEntity
  8
0
100
AcDbLine
  6
CONTINUOUS
 10
361.246687723893
 20
317.983621649615
 11
363.74353412069
 21
317.983621649615
  0
LINE
  5
1A1
100
AcDbEntity
  8
0
100
AcDbLine
  6
CONTINUOUS
 10
362.5
 20
319.11889567708
 11
362.5
 21
316.90550198807
  0
CIRCLE
  5
1A2
100
AcDbEntity
  8
0
100
AcDbCircle
  6
CONTINUOUS
 10
343.5
 20
317.983621649615
 40
2
  0
LINE
  5
1A3
100
AcDbEntity
  8
0
100
AcDbLine
  6
CONTINUOUS
 10
342.246687723893
 20
317.983621649615
 11
344.743534120691
 21
317.983621649615
  0
LINE
  5
1A4
100
AcDbEntity
  8
0
100
AcDbLine
  6
CONTINUOUS
 10
343.5
 20
319.11889567708
 11
343.5
 21
316.90550198807
  0
CIRCLE
  5
1A5
100
AcDbEntity
  8
0
100
AcDbCircle
  6
CONTINUOUS
 10
324.5
 20
317.983621649615
 40
2
  0
LINE
  5
1A6
100
AcDbEntity
  8
0
100
AcDbLine
  6
CONTINUOUS
 10
323.246687723893
 20
317.983621649615
 11
325.743534120691
 21
317.983621649615
  0
LINE
  5
1A7
100
AcDbEntity
  8
0
100
AcDbLine
  6
CONTINUOUS
 10
324.5
 20
319.11889567708
 11
324.5
 21
316.90550198807
  0
CIRCLE
  5
1A8
100
AcDbEntity
  8
0
100
AcDbCircle
  6
CONTINUOUS
 10
305.5
 20
317.983621649615
 40
2
  0
LINE
  5
1A9
100
AcDbEntity
  8
0
100
AcDbLine
  6
CONTINUOUS
 10
304.246687723893
 20
317.983621649615
 11
306.743534120691
 21
317.983621649615
  0
LINE
  5
1AA
100
AcDbEntity
  8
0
100
AcDbLine
  6
CONTINUOUS
 10
305.5
 20
319.11889567708
 11
305.5
 21
316.90550198807
  0
CIRCLE
  5
1AB
100
AcDbEntity
  8
0
100
AcDbCircle
  6
CONTINUOUS
 10
438.5
 20
317.983621649615
 40
2.5
  0
CIRCLE
  5
1AC
100
AcDbEntity
  8
0
100
AcDbCircle
  6
CONTINUOUS
 10
419.5
 20
317.983621649615
 40
2.5
  0
CIRCLE
  5
1AD
100
AcDbEntity
  8
0
100
AcDbCircle
  6
CONTINUOUS
 10
400.5
 20
317.983621649615
 40
2.5
  0
CIRCLE
  5
1AE
100
AcDbEntity
  8
0
100
AcDbCircle
  6
CONTINUOUS
 10
381.5
 20
317.983621649615
 40
2.5
  0
CIRCLE
  5
1AF
100
AcDbEntity
  8
0
100
AcDbCircle
  6
CONTINUOUS
 10
362.5
 20
317.983621649615
 40
2.5
  0
CIRCLE
  5
1B0
100
AcDbEntity
  8
0
100
AcDbCircle
  6
CONTINUOUS
 10
343.5
 20
317.983621649615
 40
2.5
  0
CIRCLE
  5
1B1
100
AcDbEntity
  8
0
100
AcDbCircle
  6
CONTINUOUS
 10
324.5
 20
317.983621649615
 40
2.5
  0
CIRCLE
  5
1B2
100
AcDbEntity
  8
0
100
AcDbCircle
  6
CONTINUOUS
 10
305.5
 20
317.983621649615
 40
2.5
  0
LINE
  5
1B3
100
AcDbEntity
  8
画層1
100
AcDbLine
  6
CONTINUOUS
 10
284.462919325745
 20
248.983621649615
 11
306.424836435447
 21
248.983621649615
  0
LINE
  5
1B4
100
AcDbEntity
  8
画層1
100
AcDbLine
  6
CONTINUOUS
 10
305.5
 20
251.361499315663
 11
305.5
 21
227.780647664697
  0
LINE
  5
1B5
100
AcDbEntity
  8
画層1
100
AcDbLine
  6
CONTINUOUS
 10
324.5
 20
249.369829335235
 11
324.5
 21
226.068730175403
  0
LINE
  5
1B6
100
AcDbEntity
  8
画層1
100
AcDbLine
  6
CONTINUOUS
 10
343.5
 20
251.551712370029
 11
343.5
 21
227.970860719063
  0
LINE
  5
1B7
100
AcDbEntity
  8
画層1
100
AcDbLine
  6
CONTINUOUS
 10
362.5
 20
251.551712370029
 11
362.5
 21
228.636606409344
  0
LINE
  5
1B8
100
AcDbEntity
  8
画層1
100
AcDbLine
  6
CONTINUOUS
 10
381.5
 20
251.171286261297
 11
381.5
 21
228.161073773429
  0
LINE
  5
1B9
100
AcDbEntity
  8
画層1
100
AcDbLine
  6
CONTINUOUS
 10
400.5
 20
251.076179734114
 11
400.5
 21
228.82681946371
  0
LINE
  5
1BA
100
AcDbEntity
  8
画層1
100
AcDbLine
  6
CONTINUOUS
 10
419.5
 20
250.606214188614
 11
419.5
 21
228.541499882161
  0
LINE
  5
1BB
100
AcDbEntity
  8
画層1
100
AcDbLine
  6
CONTINUOUS
 10
438.5
 20
251.271959878895
 11
438.5
 21
228.256180300612
  0
LINE
  5
1BC
100
AcDbEntity
  8
0
100
AcDbLine
  6
CONTINUOUS
 10
304
 20
311.483621649615
 11
304
 21
260.733621649615
  0
LINE
  5
1BD
100
AcDbEntity
  8
0
100
AcDbLine
  6
CONTINUOUS
 10
307
 20
311.483621649615
 11
307
 21
260.733621649615
  0
TEXT
  5
1BE
100
AcDbEntity
  8
0
100
AcDbText
  6
BYLAYER
 10
304.8525056904
 20
228.164901113312
 40
3.2
  1
1
  7
Font_0
100
AcDbText
  0
TEXT
  5
1BF
100
AcDbEntity
  8
0
100
AcDbText
  6
BYLAYER
 10
323.525771409477
 20
228.132218611759
 40
3.2
  1
2
  7
Font_0
100
AcDbText
  0
TEXT
  5
1C0
100
AcDbEntity
  8
0
100
AcDbText
  6
BYLAYER
 10
361.429336007782
 20
228.099128183603
 40
3.2
  1
4
  7
Font_0
100
AcDbText
  0
TEXT
  5
1C1
100
AcDbEntity
  8
0
100
AcDbText
  6
BYLAYER
 10
342.541235527627
 20
228.008436153398
 40
3.2
  1
3
  7
Font_0
100
AcDbText
  0
TEXT
  5
1C2
100
AcDbEntity
  8
0
100
AcDbText
  6
BYLAYER
 10
380.717130872872
 20
228.136039777829
 40
3.2
  1
5
  7
Font_0
100
AcDbText
  0
TEXT
  5
1C3
100
AcDbEntity
  8
0
100
AcDbText
  6
BYLAYER
 10
399.773780106009
 20
228.249921505979
 40
3.2
  1
6
  7
Font_0
100
AcDbText
  0
TEXT
  5
1C4
100
AcDbEntity
  8
0
100
AcDbText
  6
BYLAYER
 10
418.558746777765
 20
227.863835956426
 40
3.2
  1
7
  7
Font_0
100
AcDbText
  0
TEXT
  5
1C5
100
AcDbEntity
  8
0
100
AcDbText
  6
BYLAYER
 10
437.578857222908
 20
228.102519918044
 40
3.2
  1
8
  7
Font_0
100
AcDbText
  0
LINE
  5
1C6
100
AcDbEntity
  8
画層1
100
AcDbLine
  6
CONTINUOUS
 10
302.976275616793
 20
248.983621649615
 11
440
 21
248.983621649615
  0
LINE
  5
1C7
100
AcDbEntity
  8
0
100
AcDbLine
  6
CONTINUOUS
 10
319.985226279224
 20
248.983621649615
 11
317.526135347171
 21
248.983621649615
  0
LINE
  5
1C8
100
AcDbEntity
  8
0
100
AcDbLine
  6
CONTINUOUS
 10
331.526135347171
 20
248.983621649615
 11
328.981960146238
 21
248.983621649615
  0
LINE
  5
1C9
100
AcDbEntity
  8
0
100
AcDbLine
  6
CONTINUOUS
 10
338.985226279224
 20
248.983621649615
 11
336.526135347171
 21
248.983621649615
  0
LINE
  5
1CA
100
AcDbEntity
  8
0
100
AcDbLine
  6
CONTINUOUS
 10
350.526135347171
 20
248.983621649615
 11
347.981960146238
 21
248.983621649615
  0
LINE
  5
1CB
100
AcDbEntity
  8
0
100
AcDbLine
  6
CONTINUOUS
 10
357.985226279224
 20
248.983621649615
 11
355.526135347171
 21
248.983621649615
  0
LINE
  5
1CC
100
AcDbEntity
  8
0
100
AcDbLine
  6
CONTINUOUS
 10
369.526135347171
 20
248.983621649615
 11
366.981960146238
 21
248.983621649615
  0
LINE
  5
1CD
100
AcDbEntity
  8
0
100
AcDbLine
  6
CONTINUOUS
 10
376.985226279224
 20
248.983621649615
 11
374.526135347171
 21
248.983621649615
  0
LINE
  5
1CE
100
AcDbEntity
  8
0
100
AcDbLine
  6
CONTINUOUS
 10
388.526135347171
 20
248.983621649615
 11
385.981960146238
 21
248.983621649615
  0
LINE
  5
1CF
100
AcDbEntity
  8
0
100
AcDbLine
  6
CONTINUOUS
 10
395.985226279224
 20
248.983621649615
 11
393.526135347171
 21
248.983621649615
  0
LINE
  5
1D0
100
AcDbEntity
  8
0
100
AcDbLine
  6
CONTINUOUS
 10
407.526135347171
 20
248.983621649615
 11
404.981960146238
 21
248.983621649615
  0
LINE
  5
1D1
100
AcDbEntity
  8
0
100
AcDbLine
  6
CONTINUOUS
 10
414.985226279224
 20
248.983621649615
 11
412.526135347171
 21
248.983621649615
  0
LINE
  5
1D2
100
AcDbEntity
  8
0
100
AcDbLine
  6
CONTINUOUS
 10
426.526135347171
 20
248.983621649615
 11
423.981960146238
 21
248.983621649615
  0
LINE
  5
1D3
100
AcDbEntity
  8
0
100
AcDbLine
  6
CONTINUOUS
 10
433.985226279224
 20
248.983621649615
 11
431.526135347171
 21
248.983621649615
  0
LINE
  5
1D4
100
AcDbEntity
  8
0
100
AcDbLine
  6
CONTINUOUS
 10
304
 20
261.183621649615
 11
300
 21
261.183621649615
  0
LINE
  5
1D5
100
AcDbEntity
  8
0
100
AcDbLine
  6
CONTINUOUS
 10
312.526135347171
 20
248.983621649615
 11
309.981960146238
 21
248.983621649615
  0
LINE
  5
1D6
100
AcDbEntity
  8
0
100
AcDbLine
  6
CONTINUOUS
 10
299.981960146238
 20
258.733621649615
 11
310.981960146238
 21
258.733621649615
  0
LINE
  5
1D7
100
AcDbEntity
  8
0
100
AcDbLine
  6
CONTINUOUS
 10
299.981960146238
 20
239.233621649615
 11
310.981960146238
 21
239.233621649615
  0
LINE
  5
1D8
100
AcDbEntity
  8
0
100
AcDbLine
  6
CONTINUOUS
 10
299.985226279224
 20
248.233621649615
 11
310.981960146238
 21
248.233621649615
  0
LINE
  5
1D9
100
AcDbEntity
  8
0
100
AcDbLine
  6
CONTINUOUS
 10
299.985226279224
 20
249.733621649615
 11
310.981960146238
 21
249.733621649615
  0
LINE
  5
1DA
100
AcDbEntity
  8
0
100
AcDbLine
  6
CONTINUOUS
 10
309.981960146238
 20
249.733621649615
 11
309.981960146238
 21
248.233621649615
  0
LINE
  5
1DB
100
AcDbEntity
  8
0
100
AcDbLine
  6
CONTINUOUS
 10
300.985226279224
 20
249.733621649615
 11
300.985226279224
 21
248.233621649615
  0
LINE
  5
1DC
100
AcDbEntity
  8
0
100
AcDbLine
  6
CONTINUOUS
 10
299.981960146238
 20
260.733621649615
 11
299.985226279224
 21
249.733621649615
  0
LINE
  5
1DD
100
AcDbEntity
  8
0
100
AcDbLine
  6
CONTINUOUS
 10
299.985226279224
 20
248.233621649615
 11
299.981960146238
 21
237.233621649615
  0
LINE
  5
1DE
100
AcDbEntity
  8
0
100
AcDbLine
  6
CONTINUOUS
 10
299.981960146238
 20
237.233621649615
 11
310.981960146238
 21
237.233621649615
  0
LINE
  5
1DF
100
AcDbEntity
  8
0
100
AcDbLine
  6
CONTINUOUS
 10
310.981960146238
 20
237.233621649615
 11
310.981960146238
 21
248.233621649615
  0
LINE
  5
1E0
100
AcDbEntity
  8
0
100
AcDbLine
  6
CONTINUOUS
 10
310.981960146238
 20
249.733621649615
 11
310.981960146238
 21
260.733621649615
  0
LINE
  5
1E1
100
AcDbEntity
  8
0
100
AcDbLine
  6
CONTINUOUS
 10
310.981960146238
 20
260.733621649615
 11
299.981960146238
 21
260.733621649615
  0
LWPOLYLINE
  5
1E2
100
AcDbEntity
  8
0
100
AcDbPolyline
  6
CONTINUOUS
 90
     4
 70
     1
 10
310.232628340089
  20
256.483621649615
 10
300.732628340089
  20
256.483621649615
 10
300.732628340089
  20
255.983621649615
 10
310.232628340089
  20
255.983621649615
  0
LWPOLYLINE
  5
1E3
100
AcDbEntity
  8
0
100
AcDbPolyline
  6
CONTINUOUS
 90
     4
 70
     1
 10
310.232628340089
  20
254.483621649615
 10
300.732628340089
  20
254.483621649615
 10
300.732628340089
  20
253.983621649615
 10
310.232628340089
  20
253.983621649615
  0
LWPOLYLINE
  5
1E4
100
AcDbEntity
  8
0
100
AcDbPolyline
  6
CONTINUOUS
 90
     4
 70
     1
 10
310.232628340089
  20
252.483621649615
 10
300.732628340089
  20
252.483621649615
 10
300.732628340089
  20
251.983621649615
 10
310.232628340089
  20
251.983621649615
  0
LWPOLYLINE
  5
1E5
100
AcDbEntity
  8
0
100
AcDbPolyline
  6
CONTINUOUS
 90
     4
 70
     1
 10
310.234150061106
  20
245.983621649615
 10
300.734150061106
  20
245.983621649615
 10
300.734150061106
  20
245.483621649615
 10
310.234150061106
  20
245.483621649615
  0
LWPOLYLINE
  5
1E6
100
AcDbEntity
  8
0
100
AcDbPolyline
  6
CONTINUOUS
 90
     4
 70
     1
 10
310.234150061106
  20
243.983621649615
 10
300.734150061106
  20
243.983621649615
 10
300.734150061106
  20
243.483621649615
 10
310.234150061106
  20
243.483621649615
  0
LWPOLYLINE
  5
1E7
100
AcDbEntity
  8
0
100
AcDbPolyline
  6
CONTINUOUS
 90
     4
 70
     1
 10
310.234150061106
  20
241.983621649615
 10
300.734150061106
  20
241.983621649615
 10
300.734150061106
  20
241.483621649615
 10
310.234150061106
  20
241.483621649615
  0
LINE
  5
1E8
100
AcDbEntity
  8
0
100
AcDbLine
  6
CONTINUOUS
 10
323
 20
311.483621649615
 11
323
 21
260.733621649615
  0
LINE
  5
1E9
100
AcDbEntity
  8
0
100
AcDbLine
  6
CONTINUOUS
 10
326
 20
311.483621649615
 11
326
 21
260.733621649615
  0
LINE
  5
1EA
100
AcDbEntity
  8
0
100
AcDbLine
  6
CONTINUOUS
 10
319.518440485255
 20
248.983621649616
 11
319
 21
248.983621649616
  0
LINE
  5
1EB
100
AcDbEntity
  8
0
100
AcDbLine
  6
CONTINUOUS
 10
318.981960146238
 20
258.733621649615
 11
329.981960146238
 21
258.733621649615
  0
LINE
  5
1EC
100
AcDbEntity
  8
0
100
AcDbLine
  6
CONTINUOUS
 10
318.981960146238
 20
239.233621649615
 11
329.981960146238
 21
239.233621649615
  0
LINE
  5
1ED
100
AcDbEntity
  8
0
100
AcDbLine
  6
CONTINUOUS
 10
318.985226279224
 20
248.233621649615
 11
329.981960146238
 21
248.233621649615
  0
LINE
  5
1EE
100
AcDbEntity
  8
0
100
AcDbLine
  6
CONTINUOUS
 10
318.985226279224
 20
249.733621649615
 11
329.981960146238
 21
249.733621649615
  0
LINE
  5
1EF
100
AcDbEntity
  8
0
100
AcDbLine
  6
CONTINUOUS
 10
328.981960146238
 20
249.733621649615
 11
328.981960146238
 21
248.233621649615
  0
LINE
  5
1F0
100
AcDbEntity
  8
0
100
AcDbLine
  6
CONTINUOUS
 10
319.985226279224
 20
249.733621649615
 11
319.985226279224
 21
248.233621649615
  0
LINE
  5
1F1
100
AcDbEntity
  8
0
100
AcDbLine
  6
CONTINUOUS
 10
318.981960146238
 20
260.733621649615
 11
318.985226279224
 21
249.733621649615
  0
LINE
  5
1F2
100
AcDbEntity
  8
0
100
AcDbLine
  6
CONTINUOUS
 10
318.985226279224
 20
248.233621649615
 11
318.981960146238
 21
237.233621649615
  0
LINE
  5
1F3
100
AcDbEntity
  8
0
100
AcDbLine
  6
CONTINUOUS
 10
318.981960146238
 20
237.233621649615
 11
329.981960146238
 21
237.233621649615
  0
LINE
  5
1F4
100
AcDbEntity
  8
0
100
AcDbLine
  6
CONTINUOUS
 10
329.981960146238
 20
237.233621649615
 11
329.981960146238
 21
248.233621649615
  0
LINE
  5
1F5
100
AcDbEntity
  8
0
100
AcDbLine
  6
CONTINUOUS
 10
329.981960146238
 20
249.733621649615
 11
329.981960146238
 21
260.733621649615
  0
LINE
  5
1F6
100
AcDbEntity
  8
0
100
AcDbLine
  6
CONTINUOUS
 10
329.981960146238
 20
260.733621649615
 11
318.981960146238
 21
260.733621649615
  0
LWPOLYLINE
  5
1F7
100
AcDbEntity
  8
0
100
AcDbPolyline
  6
CONTINUOUS
 90
     4
 70
     1
 10
329.232628340089
  20
256.483621649615
 10
319.732628340089
  20
256.483621649615
 10
319.732628340089
  20
255.983621649615
 10
329.232628340089
  20
255.983621649615
  0
LWPOLYLINE
  5
1F8
100
AcDbEntity
  8
0
100
AcDbPolyline
  6
CONTINUOUS
 90
     4
 70
     1
 10
329.232628340089
  20
254.483621649615
 10
319.732628340089
  20
254.483621649615
 10
319.732628340089
  20
253.983621649615
 10
329.232628340089
  20
253.983621649615
  0
LWPOLYLINE
  5
1F9
100
AcDbEntity
  8
0
100
AcDbPolyline
  6
CONTINUOUS
 90
     4
 70
     1
 10
329.232628340089
  20
252.483621649615
 10
319.732628340089
  20
252.483621649615
 10
319.732628340089
  20
251.983621649615
 10
329.232628340089
  20
251.983621649615
  0
LWPOLYLINE
  5
1FA
100
AcDbEntity
  8
0
100
AcDbPolyline
  6
CONTINUOUS
 90
     4
 70
     1
 10
329.234150061106
  20
245.983621649615
 10
319.734150061106
  20
245.983621649615
 10
319.734150061106
  20
245.483621649615
 10
329.234150061106
  20
245.483621649615
  0
LWPOLYLINE
  5
1FB
100
AcDbEntity
  8
0
100
AcDbPolyline
  6
CONTINUOUS
 90
     4
 70
     1
 10
329.234150061106
  20
243.983621649615
 10
319.734150061106
  20
243.983621649615
 10
319.734150061106
  20
243.483621649615
 10
329.234150061106
  20
243.483621649615
  0
LWPOLYLINE
  5
1FC
100
AcDbEntity
  8
0
100
AcDbPolyline
  6
CONTINUOUS
 90
     4
 70
     1
 10
329.234150061106
  20
241.983621649615
 10
319.734150061106
  20
241.983621649615
 10
319.734150061106
  20
241.483621649615
 10
329.234150061106
  20
241.483621649615
  0
LINE
  5
1FD
100
AcDbEntity
  8
0
100
AcDbLine
  6
CONTINUOUS
 10
342
 20
311.483621649615
 11
342
 21
260.733621649615
  0
LINE
  5
1FE
100
AcDbEntity
  8
0
100
AcDbLine
  6
CONTINUOUS
 10
345
 20
311.483621649615
 11
345
 21
260.733621649615
  0
LINE
  5
1FF
100
AcDbEntity
  8
0
100
AcDbLine
  6
CONTINUOUS
 10
338.518440485255
 20
248.983621649616
 11
338
 21
248.983621649616
  0
LINE
  5
200
100
AcDbEntity
  8
0
100
AcDbLine
  6
CONTINUOUS
 10
337.981960146238
 20
258.733621649615
 11
348.981960146238
 21
258.733621649615
  0
LINE
  5
201
100
AcDbEntity
  8
0
100
AcDbLine
  6
CONTINUOUS
 10
337.981960146238
 20
239.233621649615
 11
348.981960146238
 21
239.233621649615
  0
LINE
  5
202
100
AcDbEntity
  8
0
100
AcDbLine
  6
CONTINUOUS
 10
337.985226279224
 20
248.233621649615
 11
348.981960146238
 21
248.233621649615
  0
LINE
  5
203
100
AcDbEntity
  8
0
100
AcDbLine
  6
CONTINUOUS
 10
337.985226279224
 20
249.733621649615
 11
348.981960146238
 21
249.733621649615
  0
LINE
  5
204
100
AcDbEntity
  8
0
100
AcDbLine
  6
CONTINUOUS
 10
347.981960146238
 20
249.733621649615
 11
347.981960146238
 21
248.233621649615
  0
LINE
  5
205
100
AcDbEntity
  8
0
100
AcDbLine
  6
CONTINUOUS
 10
338.985226279224
 20
249.733621649615
 11
338.985226279224
 21
248.233621649615
  0
LINE
  5
206
100
AcDbEntity
  8
0
100
AcDbLine
  6
CONTINUOUS
 10
337.981960146238
 20
260.733621649615
 11
337.985226279224
 21
249.733621649615
  0
LINE
  5
207
100
AcDbEntity
  8
0
100
AcDbLine
  6
CONTINUOUS
 10
337.985226279224
 20
248.233621649615
 11
337.981960146238
 21
237.233621649615
  0
LINE
  5
208
100
AcDbEntity
  8
0
100
AcDbLine
  6
CONTINUOUS
 10
337.981960146238
 20
237.233621649615
 11
348.981960146238
 21
237.233621649615
  0
LINE
  5
209
100
AcDbEntity
  8
0
100
AcDbLine
  6
CONTINUOUS
 10
348.981960146238
 20
237.233621649615
 11
348.981960146238
 21
248.233621649615
  0
LINE
  5
20A
100
AcDbEntity
  8
0
100
AcDbLine
  6
CONTINUOUS
 10
348.981960146238
 20
249.733621649615
 11
348.981960146238
 21
260.733621649615
  0
LINE
  5
20B
100
AcDbEntity
  8
0
100
AcDbLine
  6
CONTINUOUS
 10
348.981960146238
 20
260.733621649615
 11
337.981960146238
 21
260.733621649615
  0
LWPOLYLINE
  5
20C
100
AcDbEntity
  8
0
100
AcDbPolyline
  6
CONTINUOUS
 90
     4
 70
     1
 10
348.232628340089
  20
256.483621649615
 10
338.732628340089
  20
256.483621649615
 10
338.732628340089
  20
255.983621649615
 10
348.232628340089
  20
255.983621649615
  0
LWPOLYLINE
  5
20D
100
AcDbEntity
  8
0
100
AcDbPolyline
  6
CONTINUOUS
 90
     4
 70
     1
 10
348.232628340089
  20
254.483621649615
 10
338.732628340089
  20
254.483621649615
 10
338.732628340089
  20
253.983621649615
 10
348.232628340089
  20
253.983621649615
  0
LWPOLYLINE
  5
20E
100
AcDbEntity
  8
0
100
AcDbPolyline
  6
CONTINUOUS
 90
     4
 70
     1
 10
348.232628340089
  20
252.483621649615
 10
338.732628340089
  20
252.483621649615
 10
338.732628340089
  20
251.983621649615
 10
348.232628340089
  20
251.983621649615
  0
LWPOLYLINE
  5
20F
100
AcDbEntity
  8
0
100
AcDbPolyline
  6
CONTINUOUS
 90
     4
 70
     1
 10
348.234150061106
  20
245.983621649615
 10
338.734150061106
  20
245.983621649615
 10
338.734150061106
  20
245.483621649615
 10
348.234150061106
  20
245.483621649615
  0
LWPOLYLINE
  5
210
100
AcDbEntity
  8
0
100
AcDbPolyline
  6
CONTINUOUS
 90
     4
 70
     1
 10
348.234150061106
  20
243.983621649615
 10
338.734150061106
  20
243.983621649615
 10
338.734150061106
  20
243.483621649615
 10
348.234150061106
  20
243.483621649615
  0
LWPOLYLINE
  5
211
100
AcDbEntity
  8
0
100
AcDbPolyline
  6
CONTINUOUS
 90
     4
 70
     1
 10
348.234150061106
  20
241.983621649615
 10
338.734150061106
  20
241.983621649615
 10
338.734150061106
  20
241.483621649615
 10
348.234150061106
  20
241.483621649615
  0
LINE
  5
212
100
AcDbEntity
  8
0
100
AcDbLine
  6
CONTINUOUS
 10
361
 20
311.483621649615
 11
361
 21
260.733621649615
  0
LINE
  5
213
100
AcDbEntity
  8
0
100
AcDbLine
  6
CONTINUOUS
 10
364
 20
311.483621649615
 11
364
 21
260.733621649615
  0
LINE
  5
214
100
AcDbEntity
  8
0
100
AcDbLine
  6
CONTINUOUS
 10
357.518440485255
 20
248.983621649616
 11
357
 21
248.983621649616
  0
LINE
  5
215
100
AcDbEntity
  8
0
100
AcDbLine
  6
CONTINUOUS
 10
356.981960146238
 20
258.733621649615
 11
367.981960146238
 21
258.733621649615
  0
LINE
  5
216
100
AcDbEntity
  8
0
100
AcDbLine
  6
CONTINUOUS
 10
356.981960146238
 20
239.233621649615
 11
367.981960146238
 21
239.233621649615
  0
LINE
  5
217
100
AcDbEntity
  8
0
100
AcDbLine
  6
CONTINUOUS
 10
356.985226279224
 20
248.233621649615
 11
367.981960146238
 21
248.233621649615
  0
LINE
  5
218
100
AcDbEntity
  8
0
100
AcDbLine
  6
CONTINUOUS
 10
356.985226279224
 20
249.733621649615
 11
367.981960146238
 21
249.733621649615
  0
LINE
  5
219
100
AcDbEntity
  8
0
100
AcDbLine
  6
CONTINUOUS
 10
366.981960146238
 20
249.733621649615
 11
366.981960146238
 21
248.233621649615
  0
LINE
  5
21A
100
AcDbEntity
  8
0
100
AcDbLine
  6
CONTINUOUS
 10
357.985226279224
 20
249.733621649615
 11
357.985226279224
 21
248.233621649615
  0
LINE
  5
21B
100
AcDbEntity
  8
0
100
AcDbLine
  6
CONTINUOUS
 10
356.981960146238
 20
260.733621649615
 11
356.985226279224
 21
249.733621649615
  0
LINE
  5
21C
100
AcDbEntity
  8
0
100
AcDbLine
  6
CONTINUOUS
 10
356.985226279224
 20
248.233621649615
 11
356.981960146238
 21
237.233621649615
  0
LINE
  5
21D
100
AcDbEntity
  8
0
100
AcDbLine
  6
CONTINUOUS
 10
356.981960146238
 20
237.233621649615
 11
367.981960146238
 21
237.233621649615
  0
LINE
  5
21E
100
AcDbEntity
  8
0
100
AcDbLine
  6
CONTINUOUS
 10
367.981960146238
 20
237.233621649615
 11
367.981960146238
 21
248.233621649615
  0
LINE
  5
21F
100
AcDbEntity
  8
0
100
AcDbLine
  6
CONTINUOUS
 10
367.981960146238
 20
249.733621649615
 11
367.981960146238
 21
260.733621649615
  0
LINE
  5
220
100
AcDbEntity
  8
0
100
AcDbLine
  6
CONTINUOUS
 10
367.981960146238
 20
260.733621649615
 11
356.981960146238
 21
260.733621649615
  0
LWPOLYLINE
  5
221
100
AcDbEntity
  8
0
100
AcDbPolyline
  6
CONTINUOUS
 90
     4
 70
     1
 10
367.232628340089
  20
256.483621649615
 10
357.732628340089
  20
256.483621649615
 10
357.732628340089
  20
255.983621649615
 10
367.232628340089
  20
255.983621649615
  0
LWPOLYLINE
  5
222
100
AcDbEntity
  8
0
100
AcDbPolyline
  6
CONTINUOUS
 90
     4
 70
     1
 10
367.232628340089
  20
254.483621649615
 10
357.732628340089
  20
254.483621649615
 10
357.732628340089
  20
253.983621649615
 10
367.232628340089
  20
253.983621649615
  0
LWPOLYLINE
  5
223
100
AcDbEntity
  8
0
100
AcDbPolyline
  6
CONTINUOUS
 90
     4
 70
     1
 10
367.232628340089
  20
252.483621649615
 10
357.732628340089
  20
252.483621649615
 10
357.732628340089
  20
251.983621649615
 10
367.232628340089
  20
251.983621649615
  0
LWPOLYLINE
  5
224
100
AcDbEntity
  8
0
100
AcDbPolyline
  6
CONTINUOUS
 90
     4
 70
     1
 10
367.234150061106
  20
245.983621649615
 10
357.734150061106
  20
245.983621649615
 10
357.734150061106
  20
245.483621649615
 10
367.234150061106
  20
245.483621649615
  0
LWPOLYLINE
  5
225
100
AcDbEntity
  8
0
100
AcDbPolyline
  6
CONTINUOUS
 90
     4
 70
     1
 10
367.234150061106
  20
243.983621649615
 10
357.734150061106
  20
243.983621649615
 10
357.734150061106
  20
243.483621649615
 10
367.234150061106
  20
243.483621649615
  0
LWPOLYLINE
  5
226
100
AcDbEntity
  8
0
100
AcDbPolyline
  6
CONTINUOUS
 90
     4
 70
     1
 10
367.234150061106
  20
241.983621649615
 10
357.734150061106
  20
241.983621649615
 10
357.734150061106
  20
241.483621649615
 10
367.234150061106
  20
241.483621649615
  0
LINE
  5
227
100
AcDbEntity
  8
0
100
AcDbLine
  6
CONTINUOUS
 10
380
 20
311.483621649615
 11
380
 21
260.733621649615
  0
LINE
  5
228
100
AcDbEntity
  8
0
100
AcDbLine
  6
CONTINUOUS
 10
383
 20
311.483621649615
 11
383
 21
260.733621649615
  0
LINE
  5
229
100
AcDbEntity
  8
0
100
AcDbLine
  6
CONTINUOUS
 10
376.518440485255
 20
248.983621649616
 11
376
 21
248.983621649616
  0
LINE
  5
22A
100
AcDbEntity
  8
0
100
AcDbLine
  6
CONTINUOUS
 10
375.981960146238
 20
258.733621649615
 11
386.981960146238
 21
258.733621649615
  0
LINE
  5
22B
100
AcDbEntity
  8
0
100
AcDbLine
  6
CONTINUOUS
 10
375.981960146238
 20
239.233621649615
 11
386.981960146238
 21
239.233621649615
  0
LINE
  5
22C
100
AcDbEntity
  8
0
100
AcDbLine
  6
CONTINUOUS
 10
375.985226279224
 20
248.233621649615
 11
386.981960146238
 21
248.233621649615
  0
LINE
  5
22D
100
AcDbEntity
  8
0
100
AcDbLine
  6
CONTINUOUS
 10
375.985226279224
 20
249.733621649615
 11
386.981960146238
 21
249.733621649615
  0
LINE
  5
22E
100
AcDbEntity
  8
0
100
AcDbLine
  6
CONTINUOUS
 10
385.981960146238
 20
249.733621649615
 11
385.981960146238
 21
248.233621649615
  0
LINE
  5
22F
100
AcDbEntity
  8
0
100
AcDbLine
  6
CONTINUOUS
 10
376.985226279224
 20
249.733621649615
 11
376.985226279224
 21
248.233621649615
  0
LINE
  5
230
100
AcDbEntity
  8
0
100
AcDbLine
  6
CONTINUOUS
 10
375.981960146238
 20
260.733621649615
 11
375.985226279224
 21
249.733621649615
  0
LINE
  5
231
100
AcDbEntity
  8
0
100
AcDbLine
  6
CONTINUOUS
 10
375.985226279224
 20
248.233621649615
 11
375.981960146238
 21
237.233621649615
  0
LINE
  5
232
100
AcDbEntity
  8
0
100
AcDbLine
  6
CONTINUOUS
 10
375.981960146238
 20
237.233621649615
 11
386.981960146238
 21
237.233621649615
  0
LINE
  5
233
100
AcDbEntity
  8
0
100
AcDbLine
  6
CONTINUOUS
 10
386.981960146238
 20
237.233621649615
 11
386.981960146238
 21
248.233621649615
  0
LINE
  5
234
100
AcDbEntity
  8
0
100
AcDbLine
  6
CONTINUOUS
 10
386.981960146238
 20
249.733621649615
 11
386.981960146238
 21
260.733621649615
  0
LINE
  5
235
100
AcDbEntity
  8
0
100
AcDbLine
  6
CONTINUOUS
 10
386.981960146238
 20
260.733621649615
 11
375.981960146238
 21
260.733621649615
  0
LWPOLYLINE
  5
236
100
AcDbEntity
  8
0
100
AcDbPolyline
  6
CONTINUOUS
 90
     4
 70
     1
 10
386.232628340089
  20
256.483621649615
 10
376.732628340089
  20
256.483621649615
 10
376.732628340089
  20
255.983621649615
 10
386.232628340089
  20
255.983621649615
  0
LWPOLYLINE
  5
237
100
AcDbEntity
  8
0
100
AcDbPolyline
  6
CONTINUOUS
 90
     4
 70
     1
 10
386.232628340089
  20
254.483621649615
 10
376.732628340089
  20
254.483621649615
 10
376.732628340089
  20
253.983621649615
 10
386.232628340089
  20
253.983621649615
  0
LWPOLYLINE
  5
238
100
AcDbEntity
  8
0
100
AcDbPolyline
  6
CONTINUOUS
 90
     4
 70
     1
 10
386.232628340089
  20
252.483621649615
 10
376.732628340089
  20
252.483621649615
 10
376.732628340089
  20
251.983621649615
 10
386.232628340089
  20
251.983621649615
  0
LWPOLYLINE
  5
239
100
AcDbEntity
  8
0
100
AcDbPolyline
  6
CONTINUOUS
 90
     4
 70
     1
 10
386.234150061106
  20
245.983621649615
 10
376.734150061106
  20
245.983621649615
 10
376.734150061106
  20
245.483621649615
 10
386.234150061106
  20
245.483621649615
  0
LWPOLYLINE
  5
23A
100
AcDbEntity
  8
0
100
AcDbPolyline
  6
CONTINUOUS
 90
     4
 70
     1
 10
386.234150061106
  20
243.983621649615
 10
376.734150061106
  20
243.983621649615
 10
376.734150061106
  20
243.483621649615
 10
386.234150061106
  20
243.483621649615
  0
LWPOLYLINE
  5
23B
100
AcDbEntity
  8
0
100
AcDbPolyline
  6
CONTINUOUS
 90
     4
 70
     1
 10
386.234150061106
  20
241.983621649615
 10
376.734150061106
  20
241.983621649615
 10
376.734150061106
  20
241.483621649615
 10
386.234150061106
  20
241.483621649615
  0
LINE
  5
23C
100
AcDbEntity
  8
0
100
AcDbLine
  6
CONTINUOUS
 10
399
 20
311.483621649615
 11
399
 21
260.733621649615
  0
LINE
  5
23D
100
AcDbEntity
  8
0
100
AcDbLine
  6
CONTINUOUS
 10
402
 20
311.483621649615
 11
402
 21
260.733621649615
  0
LINE
  5
23E
100
AcDbEntity
  8
0
100
AcDbLine
  6
CONTINUOUS
 10
395.518440485255
 20
248.983621649616
 11
395
 21
248.983621649616
  0
LINE
  5
23F
100
AcDbEntity
  8
0
100
AcDbLine
  6
CONTINUOUS
 10
394.981960146238
 20
258.733621649615
 11
405.981960146238
 21
258.733621649615
  0
LINE
  5
240
100
AcDbEntity
  8
0
100
AcDbLine
  6
CONTINUOUS
 10
394.981960146238
 20
239.233621649615
 11
405.981960146238
 21
239.233621649615
  0
LINE
  5
241
100
AcDbEntity
  8
0
100
AcDbLine
  6
CONTINUOUS
 10
394.985226279224
 20
248.233621649615
 11
405.981960146238
 21
248.233621649615
  0
LINE
  5
242
100
AcDbEntity
  8
0
100
AcDbLine
  6
CONTINUOUS
 10
394.985226279224
 20
249.733621649615
 11
405.981960146238
 21
249.733621649615
  0
LINE
  5
243
100
AcDbEntity
  8
0
100
AcDbLine
  6
CONTINUOUS
 10
404.981960146238
 20
249.733621649615
 11
404.981960146238
 21
248.233621649615
  0
LINE
  5
244
100
AcDbEntity
  8
0
100
AcDbLine
  6
CONTINUOUS
 10
395.985226279224
 20
249.733621649615
 11
395.985226279224
 21
248.233621649615
  0
LINE
  5
245
100
AcDbEntity
  8
0
100
AcDbLine
  6
CONTINUOUS
 10
394.981960146238
 20
260.733621649615
 11
394.985226279224
 21
249.733621649615
  0
LINE
  5
246
100
AcDbEntity
  8
0
100
AcDbLine
  6
CONTINUOUS
 10
394.985226279224
 20
248.233621649615
 11
394.981960146238
 21
237.233621649615
  0
LINE
  5
247
100
AcDbEntity
  8
0
100
AcDbLine
  6
CONTINUOUS
 10
394.981960146238
 20
237.233621649615
 11
405.981960146238
 21
237.233621649615
  0
LINE
  5
248
100
AcDbEntity
  8
0
100
AcDbLine
  6
CONTINUOUS
 10
405.981960146238
 20
237.233621649615
 11
405.981960146238
 21
248.233621649615
  0
LINE
  5
249
100
AcDbEntity
  8
0
100
AcDbLine
  6
CONTINUOUS
 10
405.981960146238
 20
249.733621649615
 11
405.981960146238
 21
260.733621649615
  0
LINE
  5
24A
100
AcDbEntity
  8
0
100
AcDbLine
  6
CONTINUOUS
 10
405.981960146238
 20
260.733621649615
 11
394.981960146238
 21
260.733621649615
  0
LWPOLYLINE
  5
24B
100
AcDbEntity
  8
0
100
AcDbPolyline
  6
CONTINUOUS
 90
     4
 70
     1
 10
405.232628340089
  20
256.483621649615
 10
395.732628340089
  20
256.483621649615
 10
395.732628340089
  20
255.983621649615
 10
405.232628340089
  20
255.983621649615
  0
LWPOLYLINE
  5
24C
100
AcDbEntity
  8
0
100
AcDbPolyline
  6
CONTINUOUS
 90
     4
 70
     1
 10
405.232628340089
  20
254.483621649615
 10
395.732628340089
  20
254.483621649615
 10
395.732628340089
  20
253.983621649615
 10
405.232628340089
  20
253.983621649615
  0
LWPOLYLINE
  5
24D
100
AcDbEntity
  8
0
100
AcDbPolyline
  6
CONTINUOUS
 90
     4
 70
     1
 10
405.232628340089
  20
252.483621649615
 10
395.732628340089
  20
252.483621649615
 10
395.732628340089
  20
251.983621649615
 10
405.232628340089
  20
251.983621649615
  0
LWPOLYLINE
  5
24E
100
AcDbEntity
  8
0
100
AcDbPolyline
  6
CONTINUOUS
 90
     4
 70
     1
 10
405.234150061106
  20
245.983621649615
 10
395.734150061106
  20
245.983621649615
 10
395.734150061106
  20
245.483621649615
 10
405.234150061106
  20
245.483621649615
  0
LWPOLYLINE
  5
24F
100
AcDbEntity
  8
0
100
AcDbPolyline
  6
CONTINUOUS
 90
     4
 70
     1
 10
405.234150061106
  20
243.983621649615
 10
395.734150061106
  20
243.983621649615
 10
395.734150061106
  20
243.483621649615
 10
405.234150061106
  20
243.483621649615
  0
LWPOLYLINE
  5
250
100
AcDbEntity
  8
0
100
AcDbPolyline
  6
CONTINUOUS
 90
     4
 70
     1
 10
405.234150061106
  20
241.983621649615
 10
395.734150061106
  20
241.983621649615
 10
395.734150061106
  20
241.483621649615
 10
405.234150061106
  20
241.483621649615
  0
LINE
  5
251
100
AcDbEntity
  8
0
100
AcDbLine
  6
CONTINUOUS
 10
418
 20
311.483621649615
 11
418
 21
260.733621649615
  0
LINE
  5
252
100
AcDbEntity
  8
0
100
AcDbLine
  6
CONTINUOUS
 10
421
 20
311.483621649615
 11
421
 21
260.733621649615
  0
LINE
  5
253
100
AcDbEntity
  8
0
100
AcDbLine
  6
CONTINUOUS
 10
414.518440485255
 20
248.983621649616
 11
414
 21
248.983621649616
  0
LINE
  5
254
100
AcDbEntity
  8
0
100
AcDbLine
  6
CONTINUOUS
 10
413.981960146238
 20
258.733621649615
 11
424.981960146238
 21
258.733621649615
  0
LINE
  5
255
100
AcDbEntity
  8
0
100
AcDbLine
  6
CONTINUOUS
 10
413.981960146238
 20
239.233621649615
 11
424.981960146238
 21
239.233621649615
  0
LINE
  5
256
100
AcDbEntity
  8
0
100
AcDbLine
  6
CONTINUOUS
 10
413.985226279224
 20
248.233621649615
 11
424.981960146238
 21
248.233621649615
  0
LINE
  5
257
100
AcDbEntity
  8
0
100
AcDbLine
  6
CONTINUOUS
 10
413.985226279224
 20
249.733621649615
 11
424.981960146238
 21
249.733621649615
  0
LINE
  5
258
100
AcDbEntity
  8
0
100
AcDbLine
  6
CONTINUOUS
 10
423.981960146238
 20
249.733621649615
 11
423.981960146238
 21
248.233621649615
  0
LINE
  5
259
100
AcDbEntity
  8
0
100
AcDbLine
  6
CONTINUOUS
 10
414.985226279224
 20
249.733621649615
 11
414.985226279224
 21
248.233621649615
  0
LINE
  5
25A
100
AcDbEntity
  8
0
100
AcDbLine
  6
CONTINUOUS
 10
413.981960146238
 20
260.733621649615
 11
413.985226279224
 21
249.733621649615
  0
LINE
  5
25B
100
AcDbEntity
  8
0
100
AcDbLine
  6
CONTINUOUS
 10
413.985226279224
 20
248.233621649615
 11
413.981960146238
 21
237.233621649615
  0
LINE
  5
25C
100
AcDbEntity
  8
0
100
AcDbLine
  6
CONTINUOUS
 10
413.981960146238
 20
237.233621649615
 11
424.981960146238
 21
237.233621649615
  0
LINE
  5
25D
100
AcDbEntity
  8
0
100
AcDbLine
  6
CONTINUOUS
 10
424.981960146238
 20
237.233621649615
 11
424.981960146238
 21
248.233621649615
  0
LINE
  5
25E
100
AcDbEntity
  8
0
100
AcDbLine
  6
CONTINUOUS
 10
424.981960146238
 20
249.733621649615
 11
424.981960146238
 21
260.733621649615
  0
LINE
  5
25F
100
AcDbEntity
  8
0
100
AcDbLine
  6
CONTINUOUS
 10
424.981960146238
 20
260.733621649615
 11
413.981960146238
 21
260.733621649615
  0
LWPOLYLINE
  5
260
100
AcDbEntity
  8
0
100
AcDbPolyline
  6
CONTINUOUS
 90
     4
 70
     1
 10
424.232628340089
  20
256.483621649615
 10
414.732628340089
  20
256.483621649615
 10
414.732628340089
  20
255.983621649615
 10
424.232628340089
  20
255.983621649615
  0
LWPOLYLINE
  5
261
100
AcDbEntity
  8
0
100
AcDbPolyline
  6
CONTINUOUS
 90
     4
 70
     1
 10
424.232628340089
  20
254.483621649615
 10
414.732628340089
  20
254.483621649615
 10
414.732628340089
  20
253.983621649615
 10
424.232628340089
  20
253.983621649615
  0
LWPOLYLINE
  5
262
100
AcDbEntity
  8
0
100
AcDbPolyline
  6
CONTINUOUS
 90
     4
 70
     1
 10
424.232628340089
  20
252.483621649615
 10
414.732628340089
  20
252.483621649615
 10
414.732628340089
  20
251.983621649615
 10
424.232628340089
  20
251.983621649615
  0
LWPOLYLINE
  5
263
100
AcDbEntity
  8
0
100
AcDbPolyline
  6
CONTINUOUS
 90
     4
 70
     1
 10
424.234150061106
  20
245.983621649615
 10
414.734150061106
  20
245.983621649615
 10
414.734150061106
  20
245.483621649615
 10
424.234150061106
  20
245.483621649615
  0
LWPOLYLINE
  5
264
100
AcDbEntity
  8
0
100
AcDbPolyline
  6
CONTINUOUS
 90
     4
 70
     1
 10
424.234150061106
  20
243.983621649615
 10
414.734150061106
  20
243.983621649615
 10
414.734150061106
  20
243.483621649615
 10
424.234150061106
  20
243.483621649615
  0
LWPOLYLINE
  5
265
100
AcDbEntity
  8
0
100
AcDbPolyline
  6
CONTINUOUS
 90
     4
 70
     1
 10
424.234150061106
  20
241.983621649615
 10
414.734150061106
  20
241.983621649615
 10
414.734150061106
  20
241.483621649615
 10
424.234150061106
  20
241.483621649615
  0
LINE
  5
266
100
AcDbEntity
  8
0
100
AcDbLine
  6
CONTINUOUS
 10
437
 20
311.483621649615
 11
437
 21
260.733621649615
  0
LINE
  5
267
100
AcDbEntity
  8
0
100
AcDbLine
  6
CONTINUOUS
 10
440
 20
311.483621649615
 11
440
 21
260.733621649615
  0
LINE
  5
268
100
AcDbEntity
  8
0
100
AcDbLine
  6
CONTINUOUS
 10
433.518440485255
 20
248.983621649616
 11
433
 21
248.983621649616
  0
LINE
  5
269
100
AcDbEntity
  8
0
100
AcDbLine
  6
CONTINUOUS
 10
432.981960146238
 20
258.733621649615
 11
443.981960146238
 21
258.733621649615
  0
LINE
  5
26A
100
AcDbEntity
  8
0
100
AcDbLine
  6
CONTINUOUS
 10
432.981960146238
 20
239.233621649615
 11
443.981960146238
 21
239.233621649615
  0
LINE
  5
26B
100
AcDbEntity
  8
0
100
AcDbLine
  6
CONTINUOUS
 10
432.985226279224
 20
248.233621649615
 11
443.981960146238
 21
248.233621649615
  0
LINE
  5
26C
100
AcDbEntity
  8
0
100
AcDbLine
  6
CONTINUOUS
 10
432.985226279224
 20
249.733621649615
 11
443.981960146238
 21
249.733621649615
  0
LINE
  5
26D
100
AcDbEntity
  8
0
100
AcDbLine
  6
CONTINUOUS
 10
442.981960146238
 20
249.733621649615
 11
442.981960146238
 21
248.233621649615
  0
LINE
  5
26E
100
AcDbEntity
  8
0
100
AcDbLine
  6
CONTINUOUS
 10
433.985226279224
 20
249.733621649615
 11
433.985226279224
 21
248.233621649615
  0
LINE
  5
26F
100
AcDbEntity
  8
0
100
AcDbLine
  6
CONTINUOUS
 10
432.981960146238
 20
260.733621649615
 11
432.985226279224
 21
249.733621649615
  0
LINE
  5
270
100
AcDbEntity
  8
0
100
AcDbLine
  6
CONTINUOUS
 10
432.985226279224
 20
248.233621649615
 11
432.981960146238
 21
237.233621649615
  0
LINE
  5
271
100
AcDbEntity
  8
0
100
AcDbLine
  6
CONTINUOUS
 10
432.981960146238
 20
237.233621649615
 11
443.981960146238
 21
237.233621649615
  0
LINE
  5
272
100
AcDbEntity
  8
0
100
AcDbLine
  6
CONTINUOUS
 10
443.981960146238
 20
237.233621649615
 11
443.981960146238
 21
248.233621649615
  0
LINE
  5
273
100
AcDbEntity
  8
0
100
AcDbLine
  6
CONTINUOUS
 10
443.981960146238
 20
249.733621649615
 11
443.981960146238
 21
260.733621649615
  0
LINE
  5
274
100
AcDbEntity
  8
0
100
AcDbLine
  6
CONTINUOUS
 10
443.981960146238
 20
260.733621649615
 11
432.981960146238
 21
260.733621649615
  0
LWPOLYLINE
  5
275
100
AcDbEntity
  8
0
100
AcDbPolyline
  6
CONTINUOUS
 90
     4
 70
     1
 10
443.232628340089
  20
256.483621649615
 10
433.732628340089
  20
256.483621649615
 10
433.732628340089
  20
255.983621649615
 10
443.232628340089
  20
255.983621649615
  0
LWPOLYLINE
  5
276
100
AcDbEntity
  8
0
100
AcDbPolyline
  6
CONTINUOUS
 90
     4
 70
     1
 10
443.232628340089
  20
254.483621649615
 10
433.732628340089
  20
254.483621649615
 10
433.732628340089
  20
253.983621649615
 10
443.232628340089
  20
253.983621649615
  0
LWPOLYLINE
  5
277
100
AcDbEntity
  8
0
100
AcDbPolyline
  6
CONTINUOUS
 90
     4
 70
     1
 10
443.232628340089
  20
252.483621649615
 10
433.732628340089
  20
252.483621649615
 10
433.732628340089
  20
251.983621649615
 10
443.232628340089
  20
251.983621649615
  0
LWPOLYLINE
  5
278
100
AcDbEntity
  8
0
100
AcDbPolyline
  6
CONTINUOUS
 90
     4
 70
     1
 10
443.234150061106
  20
245.983621649615
 10
433.734150061106
  20
245.983621649615
 10
433.734150061106
  20
245.483621649615
 10
443.234150061106
  20
245.483621649615
  0
LWPOLYLINE
  5
279
100
AcDbEntity
  8
0
100
AcDbPolyline
  6
CONTINUOUS
 90
     4
 70
     1
 10
443.234150061106
  20
243.983621649615
 10
433.734150061106
  20
243.983621649615
 10
433.734150061106
  20
243.483621649615
 10
443.234150061106
  20
243.483621649615
  0
LWPOLYLINE
  5
27A
100
AcDbEntity
  8
0
100
AcDbPolyline
  6
CONTINUOUS
 90
     4
 70
     1
 10
443.234150061106
  20
241.983621649615
 10
433.734150061106
  20
241.983621649615
 10
433.734150061106
  20
241.483621649615
 10
443.234150061106
  20
241.483621649615
  0
ARC
  5
27B
100
AcDbEntity
  8
0
100
AcDbCircle
  6
CONTINUOUS
 10
305.481960146238
 20
239.233621649615
 40
2.5
100
AcDbArc
 50
-126.869897645844
 51
-53.130102354156
  0
ARC
  5
27C
100
AcDbEntity
  8
0
100
AcDbCircle
  6
CONTINUOUS
 10
324.481960146238
 20
239.233621649615
 40
2.5
100
AcDbArc
 50
-126.869897645844
 51
-53.130102354156
  0
ARC
  5
27D
100
AcDbEntity
  8
0
100
AcDbCircle
  6
CONTINUOUS
 10
343.481960146238
 20
239.233621649615
 40
2.5
100
AcDbArc
 50
-126.869897645844
 51
-53.130102354156
  0
ARC
  5
27E
100
AcDbEntity
  8
0
100
AcDbCircle
  6
CONTINUOUS
 10
362.481960146238
 20
239.233621649615
 40
2.5
100
AcDbArc
 50
-126.869897645844
 51
-53.130102354156
  0
ARC
  5
27F
100
AcDbEntity
  8
0
100
AcDbCircle
  6
CONTINUOUS
 10
381.481960146238
 20
239.233621649615
 40
2.5
100
AcDbArc
 50
-126.869897645844
 51
-53.130102354156
  0
ARC
  5
280
100
AcDbEntity
  8
0
100
AcDbCircle
  6
CONTINUOUS
 10
400.481960146238
 20
239.233621649615
 40
2.5
100
AcDbArc
 50
-126.869897645844
 51
-53.130102354156
  0
ARC
  5
281
100
AcDbEntity
  8
0
100
AcDbCircle
  6
CONTINUOUS
 10
419.481960146238
 20
239.233621649615
 40
2.5
100
AcDbArc
 50
-126.869897645844
 51
-53.130102354156
  0
ARC
  5
282
100
AcDbEntity
  8
0
100
AcDbCircle
  6
CONTINUOUS
 10
438.481960146238
 20
239.233621649615
 40
2.5
100
AcDbArc
 50
-126.869897645844
 51
-53.130102354156
  0
LINE
  5
283
100
AcDbEntity
  8
0
100
AcDbLine
  6
CONTINUOUS
 10
305.5
 20
312.983621649615
 11
305.5
 21
312.983621649615
  0
LINE
  5
284
100
AcDbEntity
  8
0
100
AcDbLine
  6
CONTINUOUS
 10
324.5
 20
312.983621649615
 11
324.5
 21
312.983621649615
  0
LINE
  5
285
100
AcDbEntity
  8
0
100
AcDbLine
  6
CONTINUOUS
 10
343.5
 20
312.983621649615
 11
343.5
 21
312.983621649615
  0
LINE
  5
286
100
AcDbEntity
  8
0
100
AcDbLine
  6
CONTINUOUS
 10
362.5
 20
312.983621649615
 11
362.5
 21
312.983621649615
  0
LINE
  5
287
100
AcDbEntity
  8
0
100
AcDbLine
  6
CONTINUOUS
 10
381.5
 20
312.983621649615
 11
381.5
 21
312.983621649615
  0
LINE
  5
288
100
AcDbEntity
  8
0
100
AcDbLine
  6
CONTINUOUS
 10
400.5
 20
312.983621649615
 11
400.5
 21
312.983621649615
  0
LINE
  5
289
100
AcDbEntity
  8
0
100
AcDbLine
  6
CONTINUOUS
 10
419.5
 20
312.983621649615
 11
419.5
 21
312.983621649615
  0
LINE
  5
28A
100
AcDbEntity
  8
0
100
AcDbLine
  6
CONTINUOUS
 10
438.5
 20
312.983621649615
 11
438.5
 21
312.983621649615
  0
LINE
  5
28B
100
AcDbEntity
  8
画層1
100
AcDbLine
  6
CONTINUOUS
 10
315.026135347171
 20
297.783621649615
 11
315.525320931897
 21
297.783621649615
  0
TEXT
  5
28C
100
AcDbEntity
  8
0
100
AcDbText
  6
BYLAYER
 10
314.226135347171
 20
296.183621649615
 40
3.2
  1
8
  7
Font_0
100
AcDbText
  0
LINE
  5
28D
100
AcDbEntity
  8
画層1
100
AcDbLine
  6
CONTINUOUS
 10
307
 20
309.983621649615
 11
440
 21
309.983621649615
  0
LINE
  5
28E
100
AcDbEntity
  8
画層1
100
AcDbLine
  6
CONTINUOUS
 10
307
 20
291.683621649615
 11
440
 21
291.683621649615
  0
LINE
  5
28F
100
AcDbEntity
  8
画層1
100
AcDbLine
  6
CONTINUOUS
 10
307
 20
285.583621649615
 11
440
 21
285.583621649615
  0
LINE
  5
290
100
AcDbEntity
  8
画層1
100
AcDbLine
  6
CONTINUOUS
 10
307
 20
273.383621649615
 11
440
 21
273.383621649615
  0
LINE
  5
291
100
AcDbEntity
  8
画層1
100
AcDbLine
  6
CONTINUOUS
 10
307
 20
267.283621649615
 11
440
 21
267.283621649615
  0
LINE
  5
292
100
AcDbEntity
  8
画層1
100
AcDbLine
  6
CONTINUOUS
 10
307
 20
261.183621649615
 11
440
 21
261.183621649615
  0
LINE
  5
293
100
AcDbEntity
  8
画層1
100
AcDbLine
  6
CONTINUOUS
 10
315.026135347171
 20
303.883621649615
 11
315.525320931897
 21
303.883621649615
  0
LINE
  5
294
100
AcDbEntity
  8
画層1
100
AcDbLine
  6
CONTINUOUS
 10
315.026135347171
 20
309.983621649615
 11
315.525320931897
 21
309.983621649615
  0
LINE
  5
295
100
AcDbEntity
  8
0
100
AcDbLine
  6
CONTINUOUS
 10
361
 20
309.983621649615
 11
355.526135347171
 21
309.983621649615
  0
TEXT
  5
296
100
AcDbEntity
  8
0
100
AcDbText
  6
BYLAYER
 10
313.4
 20
308.383621649615
 40
3.2
  1
10
  7
Font_0
100
AcDbText
  0
LINE
  5
297
100
AcDbEntity
  8
画層1
100
AcDbLine
  6
CONTINUOUS
 10
315.026135347171
 20
291.683621649615
 11
315.525320931897
 21
291.683621649615
  0
LINE
  5
298
100
AcDbEntity
  8
画層1
100
AcDbLine
  6
CONTINUOUS
 10
315.026135347171
 20
285.583621649615
 11
315.525320931897
 21
285.583621649615
  0
TEXT
  5
299
100
AcDbEntity
  8
0
100
AcDbText
  6
BYLAYER
 10
314.226135347171
 20
283.983621649615
 40
3.2
  1
6
  7
Font_0
100
AcDbText
  0
LINE
  5
29A
100
AcDbEntity
  8
画層1
100
AcDbLine
  6
CONTINUOUS
 10
315.026135347171
 20
279.483621649615
 11
315.525320931897
 21
279.483621649615
  0
LINE
  5
29B
100
AcDbEntity
  8
画層1
100
AcDbLine
  6
CONTINUOUS
 10
315.026135347171
 20
273.383621649615
 11
315.525320931897
 21
273.383621649615
  0
TEXT
  5
29C
100
AcDbEntity
  8
0
100
AcDbText
  6
BYLAYER
 10
314.226135347171
 20
271.783621649615
 40
3.2
  1
4
  7
Font_0
100
AcDbText
  0
LINE
  5
29D
100
AcDbEntity
  8
画層1
100
AcDbLine
  6
CONTINUOUS
 10
315.026135347171
 20
267.283621649615
 11
315.525320931897
 21
267.283621649615
  0
LINE
  5
29E
100
AcDbEntity
  8
画層1
100
AcDbLine
  6
CONTINUOUS
 10
315.026135347171
 20
261.183621649615
 11
315.525320931897
 21
261.183621649615
  0
LINE
  5
29F
100
AcDbEntity
  8
画層1
100
AcDbLine
  6
CONTINUOUS
 10
334.007644468182
 20
297.661389956459
 11
334.506830052908
 21
297.661389956459
  0
TEXT
  5
2A0
100
AcDbEntity
  8
0
100
AcDbText
  6
BYLAYER
 10
333.207644468182
 20
296.061389956459
 40
3.2
  1
8
  7
Font_0
100
AcDbText
  0
LINE
  5
2A1
100
AcDbEntity
  8
画層1
100
AcDbLine
  6
CONTINUOUS
 10
334.007644468182
 20
303.761389956459
 11
334.506830052908
 21
303.761389956459
  0
LINE
  5
2A2
100
AcDbEntity
  8
画層1
100
AcDbLine
  6
CONTINUOUS
 10
334.007644468182
 20
309.861389956459
 11
334.506830052908
 21
309.861389956459
  0
TEXT
  5
2A3
100
AcDbEntity
  8
0
100
AcDbText
  6
BYLAYER
 10
332.381509121012
 20
308.261389956459
 40
3.2
  1
10
  7
Font_0
100
AcDbText
  0
LINE
  5
2A4
100
AcDbEntity
  8
画層1
100
AcDbLine
  6
CONTINUOUS
 10
334.007644468182
 20
291.561389956459
 11
334.506830052908
 21
291.561389956459
  0
LINE
  5
2A5
100
AcDbEntity
  8
画層1
100
AcDbLine
  6
CONTINUOUS
 10
334.007644468182
 20
285.461389956459
 11
334.506830052908
 21
285.461389956459
  0
TEXT
  5
2A6
100
AcDbEntity
  8
0
100
AcDbText
  6
BYLAYER
 10
333.207644468182
 20
283.861389956459
 40
3.2
  1
6
  7
Font_0
100
AcDbText
  0
LINE
  5
2A7
100
AcDbEntity
  8
画層1
100
AcDbLine
  6
CONTINUOUS
 10
334.007644468182
 20
279.361389956459
 11
334.506830052908
 21
279.361389956459
  0
LINE
  5
2A8
100
AcDbEntity
  8
画層1
100
AcDbLine
  6
CONTINUOUS
 10
334.007644468182
 20
273.261389956459
 11
334.506830052908
 21
273.261389956459
  0
TEXT
  5
2A9
100
AcDbEntity
  8
0
100
AcDbText
  6
BYLAYER
 10
333.207644468182
 20
271.661389956459
 40
3.2
  1
4
  7
Font_0
100
AcDbText
  0
LINE
  5
2AA
100
AcDbEntity
  8
画層1
100
AcDbLine
  6
CONTINUOUS
 10
334.007644468182
 20
267.161389956459
 11
334.506830052908
 21
267.161389956459
  0
LINE
  5
2AB
100
AcDbEntity
  8
画層1
100
AcDbLine
  6
CONTINUOUS
 10
334.007644468182
 20
261.061389956459
 11
334.506830052908
 21
261.061389956459
  0
LINE
  5
2AC
100
AcDbEntity
  8
画層1
100
AcDbLine
  6
CONTINUOUS
 10
353.007644468182
 20
297.661389956459
 11
353.506830052908
 21
297.661389956459
  0
TEXT
  5
2AD
100
AcDbEntity
  8
0
100
AcDbText
  6
BYLAYER
 10
352.207644468182
 20
296.061389956459
 40
3.2
  1
8
  7
Font_0
100
AcDbText
  0
LINE
  5
2AE
100
AcDbEntity
  8
画層1
100
AcDbLine
  6
CONTINUOUS
 10
353.007644468182
 20
303.761389956459
 11
353.506830052908
 21
303.761389956459
  0
LINE
  5
2AF
100
AcDbEntity
  8
画層1
100
AcDbLine
  6
CONTINUOUS
 10
353.007644468182
 20
309.861389956459
 11
353.506830052908
 21
309.861389956459
  0
TEXT
  5
2B0
100
AcDbEntity
  8
0
100
AcDbText
  6
BYLAYER
 10
351.381509121012
 20
308.261389956459
 40
3.2
  1
10
  7
Font_0
100
AcDbText
  0
LINE
  5
2B1
100
AcDbEntity
  8
画層1
100
AcDbLine
  6
CONTINUOUS
 10
353.007644468182
 20
291.561389956459
 11
353.506830052908
 21
291.561389956459
  0
LINE
  5
2B2
100
AcDbEntity
  8
画層1
100
AcDbLine
  6
CONTINUOUS
 10
353.007644468182
 20
285.461389956459
 11
353.506830052908
 21
285.461389956459
  0
TEXT
  5
2B3
100
AcDbEntity
  8
0
100
AcDbText
  6
BYLAYER
 10
352.207644468182
 20
283.861389956459
 40
3.2
  1
6
  7
Font_0
100
AcDbText
  0
LINE
  5
2B4
100
AcDbEntity
  8
画層1
100
AcDbLine
  6
CONTINUOUS
 10
353.007644468182
 20
279.361389956459
 11
353.506830052908
 21
279.361389956459
  0
LINE
  5
2B5
100
AcDbEntity
  8
画層1
100
AcDbLine
  6
CONTINUOUS
 10
353.007644468182
 20
273.261389956459
 11
353.506830052908
 21
273.261389956459
  0
TEXT
  5
2B6
100
AcDbEntity
  8
0
100
AcDbText
  6
BYLAYER
 10
352.207644468182
 20
271.661389956459
 40
3.2
  1
4
  7
Font_0
100
AcDbText
  0
LINE
  5
2B7
100
AcDbEntity
  8
画層1
100
AcDbLine
  6
CONTINUOUS
 10
353.007644468182
 20
267.161389956459
 11
353.506830052908
 21
267.161389956459
  0
LINE
  5
2B8
100
AcDbEntity
  8
画層1
100
AcDbLine
  6
CONTINUOUS
 10
353.007644468182
 20
261.061389956459
 11
353.506830052908
 21
261.061389956459
  0
LINE
  5
2B9
100
AcDbEntity
  8
画層1
100
AcDbLine
  6
CONTINUOUS
 10
372.007644468182
 20
297.661389956459
 11
372.506830052908
 21
297.661389956459
  0
TEXT
  5
2BA
100
AcDbEntity
  8
0
100
AcDbText
  6
BYLAYER
 10
371.207644468182
 20
296.061389956459
 40
3.2
  1
8
  7
Font_0
100
AcDbText
  0
LINE
  5
2BB
100
AcDbEntity
  8
画層1
100
AcDbLine
  6
CONTINUOUS
 10
372.007644468182
 20
303.761389956459
 11
372.506830052908
 21
303.761389956459
  0
LINE
  5
2BC
100
AcDbEntity
  8
画層1
100
AcDbLine
  6
CONTINUOUS
 10
372.007644468182
 20
309.861389956459
 11
372.506830052908
 21
309.861389956459
  0
TEXT
  5
2BD
100
AcDbEntity
  8
0
100
AcDbText
  6
BYLAYER
 10
370.381509121012
 20
308.261389956459
 40
3.2
  1
10
  7
Font_0
100
AcDbText
  0
LINE
  5
2BE
100
AcDbEntity
  8
画層1
100
AcDbLine
  6
CONTINUOUS
 10
372.007644468182
 20
291.561389956459
 11
372.506830052908
 21
291.561389956459
  0
LINE
  5
2BF
100
AcDbEntity
  8
画層1
100
AcDbLine
  6
CONTINUOUS
 10
372.007644468182
 20
285.461389956459
 11
372.506830052908
 21
285.461389956459
  0
TEXT
  5
2C0
100
AcDbEntity
  8
0
100
AcDbText
  6
BYLAYER
 10
371.207644468182
 20
283.861389956459
 40
3.2
  1
6
  7
Font_0
100
AcDbText
  0
LINE
  5
2C1
100
AcDbEntity
  8
画層1
100
AcDbLine
  6
CONTINUOUS
 10
372.007644468182
 20
279.361389956459
 11
372.506830052908
 21
279.361389956459
  0
LINE
  5
2C2
100
AcDbEntity
  8
画層1
100
AcDbLine
  6
CONTINUOUS
 10
372.007644468182
 20
273.261389956459
 11
372.506830052908
 21
273.261389956459
  0
TEXT
  5
2C3
100
AcDbEntity
  8
0
100
AcDbText
  6
BYLAYER
 10
371.207644468182
 20
271.661389956459
 40
3.2
  1
4
  7
Font_0
100
AcDbText
  0
LINE
  5
2C4
100
AcDbEntity
  8
画層1
100
AcDbLine
  6
CONTINUOUS
 10
372.007644468182
 20
267.161389956459
 11
372.506830052908
 21
267.161389956459
  0
LINE
  5
2C5
100
AcDbEntity
  8
画層1
100
AcDbLine
  6
CONTINUOUS
 10
372.007644468182
 20
261.061389956459
 11
372.506830052908
 21
261.061389956459
  0
LINE
  5
2C6
100
AcDbEntity
  8
画層1
100
AcDbLine
  6
CONTINUOUS
 10
391.007644468182
 20
297.661389956459
 11
391.506830052908
 21
297.661389956459
  0
TEXT
  5
2C7
100
AcDbEntity
  8
0
100
AcDbText
  6
BYLAYER
 10
390.207644468182
 20
296.061389956459
 40
3.2
  1
8
  7
Font_0
100
AcDbText
  0
LINE
  5
2C8
100
AcDbEntity
  8
画層1
100
AcDbLine
  6
CONTINUOUS
 10
391.007644468182
 20
303.761389956459
 11
391.506830052908
 21
303.761389956459
  0
LINE
  5
2C9
100
AcDbEntity
  8
画層1
100
AcDbLine
  6
CONTINUOUS
 10
391.007644468182
 20
309.861389956459
 11
391.506830052908
 21
309.861389956459
  0
TEXT
  5
2CA
100
AcDbEntity
  8
0
100
AcDbText
  6
BYLAYER
 10
389.381509121012
 20
308.261389956459
 40
3.2
  1
10
  7
Font_0
100
AcDbText
  0
LINE
  5
2CB
100
AcDbEntity
  8
画層1
100
AcDbLine
  6
CONTINUOUS
 10
391.007644468182
 20
291.561389956459
 11
391.506830052908
 21
291.561389956459
  0
LINE
  5
2CC
100
AcDbEntity
  8
画層1
100
AcDbLine
  6
CONTINUOUS
 10
391.007644468182
 20
285.461389956459
 11
391.506830052908
 21
285.461389956459
  0
TEXT
  5
2CD
100
AcDbEntity
  8
0
100
AcDbText
  6
BYLAYER
 10
390.207644468182
 20
283.861389956459
 40
3.2
  1
6
  7
Font_0
100
AcDbText
  0
LINE
  5
2CE
100
AcDbEntity
  8
画層1
100
AcDbLine
  6
CONTINUOUS
 10
391.007644468182
 20
279.361389956459
 11
391.506830052908
 21
279.361389956459
  0
LINE
  5
2CF
100
AcDbEntity
  8
画層1
100
AcDbLine
  6
CONTINUOUS
 10
391.007644468182
 20
273.261389956459
 11
391.506830052908
 21
273.261389956459
  0
TEXT
  5
2D0
100
AcDbEntity
  8
0
100
AcDbText
  6
BYLAYER
 10
390.207644468182
 20
271.661389956459
 40
3.2
  1
4
  7
Font_0
100
AcDbText
  0
LINE
  5
2D1
100
AcDbEntity
  8
画層1
100
AcDbLine
  6
CONTINUOUS
 10
391.007644468182
 20
267.161389956459
 11
391.506830052908
 21
267.161389956459
  0
LINE
  5
2D2
100
AcDbEntity
  8
画層1
100
AcDbLine
  6
CONTINUOUS
 10
391.007644468182
 20
261.061389956459
 11
391.506830052908
 21
261.061389956459
  0
LINE
  5
2D3
100
AcDbEntity
  8
画層1
100
AcDbLine
  6
CONTINUOUS
 10
410.007644468182
 20
297.661389956459
 11
410.506830052908
 21
297.661389956459
  0
TEXT
  5
2D4
100
AcDbEntity
  8
0
100
AcDbText
  6
BYLAYER
 10
409.207644468182
 20
296.061389956459
 40
3.2
  1
8
  7
Font_0
100
AcDbText
  0
LINE
  5
2D5
100
AcDbEntity
  8
画層1
100
AcDbLine
  6
CONTINUOUS
 10
410.007644468182
 20
303.761389956459
 11
410.506830052908
 21
303.761389956459
  0
LINE
  5
2D6
100
AcDbEntity
  8
画層1
100
AcDbLine
  6
CONTINUOUS
 10
410.007644468182
 20
309.861389956459
 11
410.506830052908
 21
309.861389956459
  0
TEXT
  5
2D7
100
AcDbEntity
  8
0
100
AcDbText
  6
BYLAYER
 10
408.381509121012
 20
308.261389956459
 40
3.2
  1
10
  7
Font_0
100
AcDbText
  0
LINE
  5
2D8
100
AcDbEntity
  8
画層1
100
AcDbLine
  6
CONTINUOUS
 10
410.007644468182
 20
291.561389956459
 11
410.506830052908
 21
291.561389956459
  0
LINE
  5
2D9
100
AcDbEntity
  8
画層1
100
AcDbLine
  6
CONTINUOUS
 10
410.007644468182
 20
285.461389956459
 11
410.506830052908
 21
285.461389956459
  0
TEXT
  5
2DA
100
AcDbEntity
  8
0
100
AcDbText
  6
BYLAYER
 10
409.207644468182
 20
283.861389956459
 40
3.2
  1
6
  7
Font_0
100
AcDbText
  0
LINE
  5
2DB
100
AcDbEntity
  8
画層1
100
AcDbLine
  6
CONTINUOUS
 10
410.007644468182
 20
279.361389956459
 11
410.506830052908
 21
279.361389956459
  0
LINE
  5
2DC
100
AcDbEntity
  8
画層1
100
AcDbLine
  6
CONTINUOUS
 10
410.007644468182
 20
273.261389956459
 11
410.506830052908
 21
273.261389956459
  0
TEXT
  5
2DD
100
AcDbEntity
  8
0
100
AcDbText
  6
BYLAYER
 10
409.207644468182
 20
271.661389956459
 40
3.2
  1
4
  7
Font_0
100
AcDbText
  0
LINE
  5
2DE
100
AcDbEntity
  8
画層1
100
AcDbLine
  6
CONTINUOUS
 10
410.007644468182
 20
267.161389956459
 11
410.506830052908
 21
267.161389956459
  0
LINE
  5
2DF
100
AcDbEntity
  8
画層1
100
AcDbLine
  6
CONTINUOUS
 10
410.007644468182
 20
261.061389956459
 11
410.506830052908
 21
261.061389956459
  0
LINE
  5
2E0
100
AcDbEntity
  8
画層1
100
AcDbLine
  6
CONTINUOUS
 10
429.007644468182
 20
297.661389956459
 11
429.506830052909
 21
297.661389956459
  0
TEXT
  5
2E1
100
AcDbEntity
  8
0
100
AcDbText
  6
BYLAYER
 10
428.207644468182
 20
296.061389956459
 40
3.2
  1
8
  7
Font_0
100
AcDbText
  0
LINE
  5
2E2
100
AcDbEntity
  8
画層1
100
AcDbLine
  6
CONTINUOUS
 10
429.007644468182
 20
303.761389956459
 11
429.506830052909
 21
303.761389956459
  0
LINE
  5
2E3
100
AcDbEntity
  8
画層1
100
AcDbLine
  6
CONTINUOUS
 10
429.007644468182
 20
309.861389956459
 11
429.506830052909
 21
309.861389956459
  0
TEXT
  5
2E4
100
AcDbEntity
  8
0
100
AcDbText
  6
BYLAYER
 10
427.381509121012
 20
308.261389956459
 40
3.2
  1
10
  7
Font_0
100
AcDbText
  0
LINE
  5
2E5
100
AcDbEntity
  8
画層1
100
AcDbLine
  6
CONTINUOUS
 10
429.007644468182
 20
291.561389956459
 11
429.506830052909
 21
291.561389956459
  0
LINE
  5
2E6
100
AcDbEntity
  8
画層1
100
AcDbLine
  6
CONTINUOUS
 10
429.007644468182
 20
285.461389956459
 11
429.506830052909
 21
285.461389956459
  0
TEXT
  5
2E7
100
AcDbEntity
  8
0
100
AcDbText
  6
BYLAYER
 10
428.207644468182
 20
283.861389956459
 40
3.2
  1
6
  7
Font_0
100
AcDbText
  0
LINE
  5
2E8
100
AcDbEntity
  8
画層1
100
AcDbLine
  6
CONTINUOUS
 10
429.007644468182
 20
279.361389956459
 11
429.506830052909
 21
279.361389956459
  0
LINE
  5
2E9
100
AcDbEntity
  8
画層1
100
AcDbLine
  6
CONTINUOUS
 10
429.007644468182
 20
273.261389956459
 11
429.506830052909
 21
273.261389956459
  0
TEXT
  5
2EA
100
AcDbEntity
  8
0
100
AcDbText
  6
BYLAYER
 10
428.207644468182
 20
271.661389956459
 40
3.2
  1
4
  7
Font_0
100
AcDbText
  0
LINE
  5
2EB
100
AcDbEntity
  8
画層1
100
AcDbLine
  6
CONTINUOUS
 10
429.007644468182
 20
267.161389956459
 11
429.506830052909
 21
267.161389956459
  0
LINE
  5
2EC
100
AcDbEntity
  8
画層1
100
AcDbLine
  6
CONTINUOUS
 10
429.007644468182
 20
261.061389956459
 11
429.506830052909
 21
261.061389956459
  0
ARC
  5
2ED
100
AcDbEntity
  8
0
100
AcDbCircle
  6
CONTINUOUS
 10
305.5
 20
311.483621649615
 40
1.5
100
AcDbArc
 50
90
 51
180
  0
ARC
  5
2EE
100
AcDbEntity
  8
0
100
AcDbCircle
  6
CONTINUOUS
 10
305.5
 20
311.483621649615
 40
1.5
100
AcDbArc
 50
0
 51
90
  0
ARC
  5
2EF
100
AcDbEntity
  8
0
100
AcDbCircle
  6
CONTINUOUS
 10
324.5
 20
311.483621649615
 40
1.5
100
AcDbArc
 50
90
 51
180
  0
ARC
  5
2F0
100
AcDbEntity
  8
0
100
AcDbCircle
  6
CONTINUOUS
 10
324.5
 20
311.483621649615
 40
1.5
100
AcDbArc
 50
0
 51
90
  0
ARC
  5
2F1
100
AcDbEntity
  8
0
100
AcDbCircle
  6
CONTINUOUS
 10
343.5
 20
311.483621649615
 40
1.5
100
AcDbArc
 50
90
 51
180
  0
ARC
  5
2F2
100
AcDbEntity
  8
0
100
AcDbCircle
  6
CONTINUOUS
 10
343.5
 20
311.483621649615
 40
1.5
100
AcDbArc
 50
0
 51
90
  0
ARC
  5
2F3
100
AcDbEntity
  8
0
100
AcDbCircle
  6
CONTINUOUS
 10
362.5
 20
311.483621649615
 40
1.5
100
AcDbArc
 50
90
 51
180
  0
ARC
  5
2F4
100
AcDbEntity
  8
0
100
AcDbCircle
  6
CONTINUOUS
 10
362.5
 20
311.483621649615
 40
1.5
100
AcDbArc
 50
0
 51
90
  0
ARC
  5
2F5
100
AcDbEntity
  8
0
100
AcDbCircle
  6
CONTINUOUS
 10
381.5
 20
311.483621649615
 40
1.5
100
AcDbArc
 50
90
 51
180
  0
ARC
  5
2F6
100
AcDbEntity
  8
0
100
AcDbCircle
  6
CONTINUOUS
 10
381.5
 20
311.483621649615
 40
1.5
100
AcDbArc
 50
0
 51
90
  0
ARC
  5
2F7
100
AcDbEntity
  8
0
100
AcDbCircle
  6
CONTINUOUS
 10
400.5
 20
311.483621649615
 40
1.5
100
AcDbArc
 50
90
 51
180
  0
ARC
  5
2F8
100
AcDbEntity
  8
0
100
AcDbCircle
  6
CONTINUOUS
 10
400.5
 20
311.483621649615
 40
1.5
100
AcDbArc
 50
0
 51
90
  0
ARC
  5
2F9
100
AcDbEntity
  8
0
100
AcDbCircle
  6
CONTINUOUS
 10
419.5
 20
311.483621649615
 40
1.5
100
AcDbArc
 50
90
 51
180
  0
ARC
  5
2FA
100
AcDbEntity
  8
0
100
AcDbCircle
  6
CONTINUOUS
 10
419.5
 20
311.483621649615
 40
1.5
100
AcDbArc
 50
0
 51
90
  0
ARC
  5
2FB
100
AcDbEntity
  8
0
100
AcDbCircle
  6
CONTINUOUS
 10
438.5
 20
311.483621649615
 40
1.5
100
AcDbArc
 50
90
 51
180
  0
ARC
  5
2FC
100
AcDbEntity
  8
0
100
AcDbCircle
  6
CONTINUOUS
 10
438.5
 20
311.483621649615
 40
1.5
100
AcDbArc
 50
0
 51
90
  0
LINE
  5
2FD
100
AcDbEntity
  8
0
100
AcDbLine
  6
CONTINUOUS
 10
312.526135347171
 20
309.983621649615
 11
309.526135347171
 21
309.983621649615
  0
LINE
  5
2FE
100
AcDbEntity
  8
0
100
AcDbLine
  6
CONTINUOUS
 10
317.526135347171
 20
309.983621649615
 11
320.526135347171
 21
309.983621649615
  0
LINE
  5
2FF
100
AcDbEntity
  8
0
100
AcDbLine
  6
CONTINUOUS
 10
312.526135347171
 20
297.783621649615
 11
309.526135347171
 21
297.783621649615
  0
LINE
  5
300
100
AcDbEntity
  8
0
100
AcDbLine
  6
CONTINUOUS
 10
312.526135347171
 20
285.583621649615
 11
309.526135347171
 21
285.583621649615
  0
LINE
  5
301
100
AcDbEntity
  8
0
100
AcDbLine
  6
CONTINUOUS
 10
312.526135347171
 20
273.383621649615
 11
309.526135347171
 21
273.383621649615
  0
LINE
  5
302
100
AcDbEntity
  8
0
100
AcDbLine
  6
CONTINUOUS
 10
312.526135347171
 20
261.183621649615
 11
309.526135347171
 21
261.183621649615
  0
LINE
  5
303
100
AcDbEntity
  8
0
100
AcDbLine
  6
CONTINUOUS
 10
331.526135347171
 20
309.983621649615
 11
328.526135347171
 21
309.983621649615
  0
LINE
  5
304
100
AcDbEntity
  8
0
100
AcDbLine
  6
CONTINUOUS
 10
331.526135347171
 20
297.783621649615
 11
328.526135347171
 21
297.783621649615
  0
LINE
  5
305
100
AcDbEntity
  8
0
100
AcDbLine
  6
CONTINUOUS
 10
331.526135347171
 20
285.583621649615
 11
328.526135347171
 21
285.583621649615
  0
LINE
  5
306
100
AcDbEntity
  8
0
100
AcDbLine
  6
CONTINUOUS
 10
331.526135347171
 20
273.383621649615
 11
328.526135347171
 21
273.383621649615
  0
LINE
  5
307
100
AcDbEntity
  8
0
100
AcDbLine
  6
CONTINUOUS
 10
331.526135347171
 20
261.183621649615
 11
328.526135347171
 21
261.183621649615
  0
LINE
  5
308
100
AcDbEntity
  8
0
100
AcDbLine
  6
CONTINUOUS
 10
350.526135347171
 20
309.983621649615
 11
347.526135347171
 21
309.983621649615
  0
LINE
  5
309
100
AcDbEntity
  8
0
100
AcDbLine
  6
CONTINUOUS
 10
350.526135347171
 20
297.783621649615
 11
347.526135347171
 21
297.783621649615
  0
LINE
  5
30A
100
AcDbEntity
  8
0
100
AcDbLine
  6
CONTINUOUS
 10
350.526135347171
 20
285.583621649615
 11
347.526135347171
 21
285.583621649615
  0
LINE
  5
30B
100
AcDbEntity
  8
0
100
AcDbLine
  6
CONTINUOUS
 10
350.526135347171
 20
273.383621649615
 11
347.526135347171
 21
273.383621649615
  0
LINE
  5
30C
100
AcDbEntity
  8
0
100
AcDbLine
  6
CONTINUOUS
 10
350.526135347171
 20
261.183621649615
 11
347.526135347171
 21
261.183621649615
  0
LINE
  5
30D
100
AcDbEntity
  8
0
100
AcDbLine
  6
CONTINUOUS
 10
369.526135347171
 20
309.983621649615
 11
366.526135347171
 21
309.983621649615
  0
LINE
  5
30E
100
AcDbEntity
  8
0
100
AcDbLine
  6
CONTINUOUS
 10
369.526135347171
 20
297.783621649615
 11
366.526135347171
 21
297.783621649615
  0
LINE
  5
30F
100
AcDbEntity
  8
0
100
AcDbLine
  6
CONTINUOUS
 10
369.526135347171
 20
285.583621649615
 11
366.526135347171
 21
285.583621649615
  0
LINE
  5
310
100
AcDbEntity
  8
0
100
AcDbLine
  6
CONTINUOUS
 10
369.526135347171
 20
273.383621649615
 11
366.526135347171
 21
273.383621649615
  0
LINE
  5
311
100
AcDbEntity
  8
0
100
AcDbLine
  6
CONTINUOUS
 10
369.526135347171
 20
261.183621649615
 11
366.526135347171
 21
261.183621649615
  0
LINE
  5
312
100
AcDbEntity
  8
0
100
AcDbLine
  6
CONTINUOUS
 10
388.526135347171
 20
309.983621649615
 11
385.526135347171
 21
309.983621649615
  0
LINE
  5
313
100
AcDbEntity
  8
0
100
AcDbLine
  6
CONTINUOUS
 10
407.526135347171
 20
309.983621649615
 11
404.526135347171
 21
309.983621649615
  0
LINE
  5
314
100
AcDbEntity
  8
0
100
AcDbLine
  6
CONTINUOUS
 10
426.526135347171
 20
309.983621649615
 11
423.526135347171
 21
309.983621649615
  0
LINE
  5
315
100
AcDbEntity
  8
0
100
AcDbLine
  6
CONTINUOUS
 10
426.526135347171
 20
297.783621649615
 11
423.526135347171
 21
297.783621649615
  0
LINE
  5
316
100
AcDbEntity
  8
0
100
AcDbLine
  6
CONTINUOUS
 10
407.526135347171
 20
297.783621649615
 11
404.526135347171
 21
297.783621649615
  0
LINE
  5
317
100
AcDbEntity
  8
0
100
AcDbLine
  6
CONTINUOUS
 10
388.526135347171
 20
297.783621649615
 11
385.526135347171
 21
297.783621649615
  0
LINE
  5
318
100
AcDbEntity
  8
0
100
AcDbLine
  6
CONTINUOUS
 10
369.526135347171
 20
297.783621649615
 11
366.526135347171
 21
297.783621649615
  0
LINE
  5
319
100
AcDbEntity
  8
0
100
AcDbLine
  6
CONTINUOUS
 10
369.526135347171
 20
285.583621649615
 11
366.526135347171
 21
285.583621649615
  0
LINE
  5
31A
100
AcDbEntity
  8
0
100
AcDbLine
  6
CONTINUOUS
 10
388.526135347171
 20
285.583621649615
 11
385.526135347171
 21
285.583621649615
  0
LINE
  5
31B
100
AcDbEntity
  8
0
100
AcDbLine
  6
CONTINUOUS
 10
407.526135347171
 20
285.583621649615
 11
404.526135347171
 21
285.583621649615
  0
LINE
  5
31C
100
AcDbEntity
  8
0
100
AcDbLine
  6
CONTINUOUS
 10
426.526135347171
 20
285.583621649615
 11
423.526135347171
 21
285.583621649615
  0
LINE
  5
31D
100
AcDbEntity
  8
0
100
AcDbLine
  6
CONTINUOUS
 10
426.526135347171
 20
273.383621649615
 11
423.526135347171
 21
273.383621649615
  0
LINE
  5
31E
100
AcDbEntity
  8
0
100
AcDbLine
  6
CONTINUOUS
 10
407.526135347171
 20
273.383621649615
 11
404.526135347171
 21
273.383621649615
  0
LINE
  5
31F
100
AcDbEntity
  8
0
100
AcDbLine
  6
CONTINUOUS
 10
388.526135347171
 20
273.383621649615
 11
385.526135347171
 21
273.383621649615
  0
LINE
  5
320
100
AcDbEntity
  8
0
100
AcDbLine
  6
CONTINUOUS
 10
369.526135347171
 20
273.383621649615
 11
366.526135347171
 21
273.383621649615
  0
LINE
  5
321
100
AcDbEntity
  8
0
100
AcDbLine
  6
CONTINUOUS
 10
369.526135347171
 20
261.183621649615
 11
366.526135347171
 21
261.183621649615
  0
LINE
  5
322
100
AcDbEntity
  8
0
100
AcDbLine
  6
CONTINUOUS
 10
388.526135347171
 20
261.183621649615
 11
385.526135347171
 21
261.183621649615
  0
LINE
  5
323
100
AcDbEntity
  8
0
100
AcDbLine
  6
CONTINUOUS
 10
407.526135347171
 20
261.183621649615
 11
404.526135347171
 21
261.183621649615
  0
LINE
  5
324
100
AcDbEntity
  8
0
100
AcDbLine
  6
CONTINUOUS
 10
426.526135347171
 20
261.183621649615
 11
423.526135347171
 21
261.183621649615
  0
LINE
  5
325
100
AcDbEntity
  8
0
100
AcDbLine
  6
CONTINUOUS
 10
317.526135347171
 20
297.783621649615
 11
320.526135347171
 21
297.783621649615
  0
LINE
  5
326
100
AcDbEntity
  8
0
100
AcDbLine
  6
CONTINUOUS
 10
317.526135347171
 20
285.583621649615
 11
320.526135347171
 21
285.583621649615
  0
LINE
  5
327
100
AcDbEntity
  8
0
100
AcDbLine
  6
CONTINUOUS
 10
317.526135347171
 20
273.383621649615
 11
320.526135347171
 21
273.383621649615
  0
LINE
  5
328
100
AcDbEntity
  8
0
100
AcDbLine
  6
CONTINUOUS
 10
317.526135347171
 20
261.183621649615
 11
320.526135347171
 21
261.183621649615
  0
LINE
  5
329
100
AcDbEntity
  8
0
100
AcDbLine
  6
CONTINUOUS
 10
336.526135347171
 20
309.983621649615
 11
339.526135347171
 21
309.983621649615
  0
LINE
  5
32A
100
AcDbEntity
  8
0
100
AcDbLine
  6
CONTINUOUS
 10
355.526135347171
 20
297.783621649615
 11
358.526135347171
 21
297.783621649615
  0
LINE
  5
32B
100
AcDbEntity
  8
0
100
AcDbLine
  6
CONTINUOUS
 10
355.526135347171
 20
285.583621649615
 11
358.526135347171
 21
285.583621649615
  0
LINE
  5
32C
100
AcDbEntity
  8
0
100
AcDbLine
  6
CONTINUOUS
 10
355.526135347171
 20
273.383621649615
 11
358.526135347171
 21
273.383621649615
  0
LINE
  5
32D
100
AcDbEntity
  8
0
100
AcDbLine
  6
CONTINUOUS
 10
355.526135347171
 20
261.183621649615
 11
358.526135347171
 21
261.183621649615
  0
LINE
  5
32E
100
AcDbEntity
  8
0
100
AcDbLine
  6
CONTINUOUS
 10
374.526135347171
 20
261.183621649615
 11
377.526135347171
 21
261.183621649615
  0
LINE
  5
32F
100
AcDbEntity
  8
0
100
AcDbLine
  6
CONTINUOUS
 10
374.526135347171
 20
273.383621649615
 11
377.526135347171
 21
273.383621649615
  0
LINE
  5
330
100
AcDbEntity
  8
0
100
AcDbLine
  6
CONTINUOUS
 10
374.526135347171
 20
285.583621649615
 11
377.526135347171
 21
285.583621649615
  0
LINE
  5
331
100
AcDbEntity
  8
0
100
AcDbLine
  6
CONTINUOUS
 10
374.526135347171
 20
297.783621649615
 11
377.526135347171
 21
297.783621649615
  0
LINE
  5
332
100
AcDbEntity
  8
0
100
AcDbLine
  6
CONTINUOUS
 10
374.526135347171
 20
309.983621649615
 11
377.526135347171
 21
309.983621649615
  0
LINE
  5
333
100
AcDbEntity
  8
0
100
AcDbLine
  6
CONTINUOUS
 10
393.526135347171
 20
309.983621649615
 11
396.526135347171
 21
309.983621649615
  0
LINE
  5
334
100
AcDbEntity
  8
0
100
AcDbLine
  6
CONTINUOUS
 10
393.526135347171
 20
297.783621649615
 11
396.526135347171
 21
297.783621649615
  0
LINE
  5
335
100
AcDbEntity
  8
0
100
AcDbLine
  6
CONTINUOUS
 10
393.526135347171
 20
285.583621649615
 11
396.526135347171
 21
285.583621649615
  0
LINE
  5
336
100
AcDbEntity
  8
0
100
AcDbLine
  6
CONTINUOUS
 10
393.526135347171
 20
273.383621649615
 11
396.526135347171
 21
273.383621649615
  0
LINE
  5
337
100
AcDbEntity
  8
0
100
AcDbLine
  6
CONTINUOUS
 10
393.526135347171
 20
261.183621649615
 11
396.526135347171
 21
261.183621649615
  0
LINE
  5
338
100
AcDbEntity
  8
0
100
AcDbLine
  6
CONTINUOUS
 10
412.526135347171
 20
261.183621649615
 11
415.526135347171
 21
261.183621649615
  0
LINE
  5
339
100
AcDbEntity
  8
0
100
AcDbLine
  6
CONTINUOUS
 10
412.526135347171
 20
273.383621649615
 11
415.526135347171
 21
273.383621649615
  0
LINE
  5
33A
100
AcDbEntity
  8
0
100
AcDbLine
  6
CONTINUOUS
 10
412.526135347171
 20
285.583621649615
 11
415.526135347171
 21
285.583621649615
  0
LINE
  5
33B
100
AcDbEntity
  8
0
100
AcDbLine
  6
CONTINUOUS
 10
412.526135347171
 20
297.783621649615
 11
415.526135347171
 21
297.783621649615
  0
LINE
  5
33C
100
AcDbEntity
  8
0
100
AcDbLine
  6
CONTINUOUS
 10
412.526135347171
 20
309.983621649615
 11
415.526135347171
 21
309.983621649615
  0
LINE
  5
33D
100
AcDbEntity
  8
0
100
AcDbLine
  6
CONTINUOUS
 10
431.526135347171
 20
309.983621649615
 11
434.526135347171
 21
309.983621649615
  0
LINE
  5
33E
100
AcDbEntity
  8
0
100
AcDbLine
  6
CONTINUOUS
 10
431.526135347171
 20
297.783621649615
 11
434.526135347171
 21
297.783621649615
  0
LINE
  5
33F
100
AcDbEntity
  8
0
100
AcDbLine
  6
CONTINUOUS
 10
431.526135347171
 20
285.583621649615
 11
434.526135347171
 21
285.583621649615
  0
LINE
  5
340
100
AcDbEntity
  8
0
100
AcDbLine
  6
CONTINUOUS
 10
431.526135347171
 20
273.383621649615
 11
434.526135347171
 21
273.383621649615
  0
LINE
  5
341
100
AcDbEntity
  8
0
100
AcDbLine
  6
CONTINUOUS
 10
431.526135347171
 20
261.183621649615
 11
434.526135347171
 21
261.183621649615
  0
LINE
  5
342
100
AcDbEntity
  8
0
100
AcDbLine
  6
CONTINUOUS
 10
336.526135347171
 20
297.783621649615
 11
339.526135347171
 21
297.783621649615
  0
LINE
  5
343
100
AcDbEntity
  8
0
100
AcDbLine
  6
CONTINUOUS
 10
336.526135347171
 20
285.583621649615
 11
339.526135347171
 21
285.583621649615
  0
LINE
  5
344
100
AcDbEntity
  8
0
100
AcDbLine
  6
CONTINUOUS
 10
336.526135347171
 20
273.383621649615
 11
339.526135347171
 21
273.383621649615
  0
LINE
  5
345
100
AcDbEntity
  8
0
100
AcDbLine
  6
CONTINUOUS
 10
336.526135347171
 20
261.183621649615
 11
339.526135347171
 21
261.183621649615
  0
LINE
  5
346
100
AcDbEntity
  8
0
100
AcDbLine
  6
CONTINUOUS
 10
312.526135347171
 20
303.883621649615
 11
317.526135347171
 21
303.883621649615
  0
LINE
  5
347
100
AcDbEntity
  8
0
100
AcDbLine
  6
CONTINUOUS
 10
312.526135347171
 20
291.683621649615
 11
317.526135347171
 21
291.683621649615
  0
LINE
  5
348
100
AcDbEntity
  8
0
100
AcDbLine
  6
CONTINUOUS
 10
312.526135347171
 20
279.483621649615
 11
317.526135347171
 21
279.483621649615
  0
LINE
  5
349
100
AcDbEntity
  8
0
100
AcDbLine
  6
CONTINUOUS
 10
312.526135347171
 20
267.283621649615
 11
317.526135347171
 21
267.283621649615
  0
LINE
  5
34A
100
AcDbEntity
  8
0
100
AcDbLine
  6
CONTINUOUS
 10
331.526135347171
 20
267.283621649615
 11
336.526135347171
 21
267.283621649615
  0
LINE
  5
34B
100
AcDbEntity
  8
0
100
AcDbLine
  6
CONTINUOUS
 10
331.526135347171
 20
279.483621649615
 11
336.526135347171
 21
279.483621649615
  0
LINE
  5
34C
100
AcDbEntity
  8
0
100
AcDbLine
  6
CONTINUOUS
 10
331.526135347171
 20
291.683621649615
 11
336.526135347171
 21
291.683621649615
  0
LINE
  5
34D
100
AcDbEntity
  8
0
100
AcDbLine
  6
CONTINUOUS
 10
331.526135347171
 20
303.883621649615
 11
336.526135347171
 21
303.883621649615
  0
LINE
  5
34E
100
AcDbEntity
  8
0
100
AcDbLine
  6
CONTINUOUS
 10
350.526135347171
 20
303.883621649615
 11
355.526135347171
 21
303.883621649615
  0
LINE
  5
34F
100
AcDbEntity
  8
0
100
AcDbLine
  6
CONTINUOUS
 10
350.526135347171
 20
291.683621649615
 11
355.526135347171
 21
291.683621649615
  0
LINE
  5
350
100
AcDbEntity
  8
0
100
AcDbLine
  6
CONTINUOUS
 10
350.526135347171
 20
279.483621649615
 11
355.526135347171
 21
279.483621649615
  0
LINE
  5
351
100
AcDbEntity
  8
0
100
AcDbLine
  6
CONTINUOUS
 10
350.526135347171
 20
267.283621649615
 11
355.526135347171
 21
267.283621649615
  0
LINE
  5
352
100
AcDbEntity
  8
0
100
AcDbLine
  6
CONTINUOUS
 10
369.526135347171
 20
267.283621649615
 11
374.526135347171
 21
267.283621649615
  0
LINE
  5
353
100
AcDbEntity
  8
0
100
AcDbLine
  6
CONTINUOUS
 10
369.526135347171
 20
279.483621649615
 11
374.526135347171
 21
279.483621649615
  0
LINE
  5
354
100
AcDbEntity
  8
0
100
AcDbLine
  6
CONTINUOUS
 10
369.526135347171
 20
291.683621649615
 11
374.526135347171
 21
291.683621649615
  0
LINE
  5
355
100
AcDbEntity
  8
0
100
AcDbLine
  6
CONTINUOUS
 10
369.526135347171
 20
303.883621649615
 11
374.526135347171
 21
303.883621649615
  0
LINE
  5
356
100
AcDbEntity
  8
0
100
AcDbLine
  6
CONTINUOUS
 10
388.526135347171
 20
303.883621649615
 11
393.526135347171
 21
303.883621649615
  0
LINE
  5
357
100
AcDbEntity
  8
0
100
AcDbLine
  6
CONTINUOUS
 10
388.526135347171
 20
291.683621649615
 11
393.526135347171
 21
291.683621649615
  0
LINE
  5
358
100
AcDbEntity
  8
0
100
AcDbLine
  6
CONTINUOUS
 10
388.526135347171
 20
279.483621649615
 11
393.526135347171
 21
279.483621649615
  0
LINE
  5
359
100
AcDbEntity
  8
0
100
AcDbLine
  6
CONTINUOUS
 10
388.526135347171
 20
267.283621649615
 11
393.526135347171
 21
267.283621649615
  0
LINE
  5
35A
100
AcDbEntity
  8
0
100
AcDbLine
  6
CONTINUOUS
 10
407.526135347171
 20
267.283621649615
 11
412.526135347171
 21
267.283621649615
  0
LINE
  5
35B
100
AcDbEntity
  8
0
100
AcDbLine
  6
CONTINUOUS
 10
426.526135347171
 20
267.283621649615
 11
431.526135347171
 21
267.283621649615
  0
LINE
  5
35C
100
AcDbEntity
  8
0
100
AcDbLine
  6
CONTINUOUS
 10
431.526135347171
 20
279.483621649615
 11
426.526135347171
 21
279.483621649615
  0
LINE
  5
35D
100
AcDbEntity
  8
0
100
AcDbLine
  6
CONTINUOUS
 10
412.526135347171
 20
279.483621649615
 11
407.526135347171
 21
279.483621649615
  0
LINE
  5
35E
100
AcDbEntity
  8
0
100
AcDbLine
  6
CONTINUOUS
 10
407.526135347171
 20
291.683621649615
 11
412.526135347171
 21
291.683621649615
  0
LINE
  5
35F
100
AcDbEntity
  8
0
100
AcDbLine
  6
CONTINUOUS
 10
407.526135347171
 20
303.883621649615
 11
412.526135347171
 21
303.883621649615
  0
LINE
  5
360
100
AcDbEntity
  8
0
100
AcDbLine
  6
CONTINUOUS
 10
426.526135347171
 20
303.883621649615
 11
431.526135347171
 21
303.883621649615
  0
LINE
  5
361
100
AcDbEntity
  8
0
100
AcDbLine
  6
CONTINUOUS
 10
426.526135347171
 20
291.683621649615
 11
431.526135347171
 21
291.683621649615
  0
LINE
  5
362
100
AcDbEntity
  8
画層1
100
AcDbLine
  6
CONTINUOUS
 10
314.793818576732
 20
255.998784812862
 11
315.293004161458
 21
255.998784812862
  0
LINE
  5
363
100
AcDbEntity
  8
画層1
100
AcDbLine
  6
CONTINUOUS
 10
315.026135347171
 20
255.083621649615
 11
315.525320931897
 21
255.083621649615
  0
LINE
  5
364
100
AcDbEntity
  8
画層1
100
AcDbLine
  6
CONTINUOUS
 10
315.026135347171
 20
248.983621649615
 11
315.525320931897
 21
248.983621649615
  0
TEXT
  5
365
100
AcDbEntity
  8
0
100
AcDbText
  6
BYLAYER
 10
314.226135347171
 20
247.383621649615
 40
3.2
  1
0
  7
Font_0
100
AcDbText
  0
LINE
  5
366
100
AcDbEntity
  8
0
100
AcDbLine
  6
CONTINUOUS
 10
312.526135347171
 20
255.083621649615
 11
317.526135347171
 21
255.083621649615
  0
LINE
  5
367
100
AcDbEntity
  8
画層1
100
AcDbLine
  6
CONTINUOUS
 10
333.793818576732
 20
255.998784812862
 11
334.293004161458
 21
255.998784812862
  0
LINE
  5
368
100
AcDbEntity
  8
画層1
100
AcDbLine
  6
CONTINUOUS
 10
334.026135347171
 20
255.083621649615
 11
334.525320931897
 21
255.083621649615
  0
LINE
  5
369
100
AcDbEntity
  8
画層1
100
AcDbLine
  6
CONTINUOUS
 10
334.026135347171
 20
248.983621649615
 11
334.525320931897
 21
248.983621649615
  0
TEXT
  5
36A
100
AcDbEntity
  8
0
100
AcDbText
  6
BYLAYER
 10
333.226135347171
 20
247.383621649615
 40
3.2
  1
0
  7
Font_0
100
AcDbText
  0
LINE
  5
36B
100
AcDbEntity
  8
0
100
AcDbLine
  6
CONTINUOUS
 10
331.526135347171
 20
255.083621649615
 11
336.526135347171
 21
255.083621649615
  0
LINE
  5
36C
100
AcDbEntity
  8
画層1
100
AcDbLine
  6
CONTINUOUS
 10
352.793818576732
 20
255.998784812862
 11
353.293004161458
 21
255.998784812862
  0
LINE
  5
36D
100
AcDbEntity
  8
画層1
100
AcDbLine
  6
CONTINUOUS
 10
353.026135347171
 20
255.083621649615
 11
353.525320931897
 21
255.083621649615
  0
LINE
  5
36E
100
AcDbEntity
  8
画層1
100
AcDbLine
  6
CONTINUOUS
 10
353.026135347171
 20
248.983621649615
 11
353.525320931897
 21
248.983621649615
  0
TEXT
  5
36F
100
AcDbEntity
  8
0
100
AcDbText
  6
BYLAYER
 10
352.226135347171
 20
247.383621649615
 40
3.2
  1
0
  7
Font_0
100
AcDbText
  0
LINE
  5
370
100
AcDbEntity
  8
0
100
AcDbLine
  6
CONTINUOUS
 10
350.526135347171
 20
255.083621649615
 11
355.526135347171
 21
255.083621649615
  0
LINE
  5
371
100
AcDbEntity
  8
画層1
100
AcDbLine
  6
CONTINUOUS
 10
371.793818576732
 20
255.998784812862
 11
372.293004161458
 21
255.998784812862
  0
LINE
  5
372
100
AcDbEntity
  8
画層1
100
AcDbLine
  6
CONTINUOUS
 10
372.026135347171
 20
255.083621649615
 11
372.525320931897
 21
255.083621649615
  0
LINE
  5
373
100
AcDbEntity
  8
画層1
100
AcDbLine
  6
CONTINUOUS
 10
372.026135347171
 20
248.983621649615
 11
372.525320931897
 21
248.983621649615
  0
TEXT
  5
374
100
AcDbEntity
  8
0
100
AcDbText
  6
BYLAYER
 10
371.226135347171
 20
247.383621649615
 40
3.2
  1
0
  7
Font_0
100
AcDbText
  0
LINE
  5
375
100
AcDbEntity
  8
0
100
AcDbLine
  6
CONTINUOUS
 10
369.526135347171
 20
255.083621649615
 11
374.526135347171
 21
255.083621649615
  0
LINE
  5
376
100
AcDbEntity
  8
画層1
100
AcDbLine
  6
CONTINUOUS
 10
390.793818576732
 20
255.998784812862
 11
391.293004161458
 21
255.998784812862
  0
LINE
  5
377
100
AcDbEntity
  8
画層1
100
AcDbLine
  6
CONTINUOUS
 10
391.026135347171
 20
255.083621649615
 11
391.525320931897
 21
255.083621649615
  0
LINE
  5
378
100
AcDbEntity
  8
画層1
100
AcDbLine
  6
CONTINUOUS
 10
391.026135347171
 20
248.983621649615
 11
391.525320931897
 21
248.983621649615
  0
TEXT
  5
379
100
AcDbEntity
  8
0
100
AcDbText
  6
BYLAYER
 10
390.226135347171
 20
247.383621649615
 40
3.2
  1
0
  7
Font_0
100
AcDbText
  0
LINE
  5
37A
100
AcDbEntity
  8
0
100
AcDbLine
  6
CONTINUOUS
 10
388.526135347171
 20
255.083621649615
 11
393.526135347171
 21
255.083621649615
  0
LINE
  5
37B
100
AcDbEntity
  8
画層1
100
AcDbLine
  6
CONTINUOUS
 10
409.793818576732
 20
255.998784812862
 11
410.293004161458
 21
255.998784812862
  0
LINE
  5
37C
100
AcDbEntity
  8
画層1
100
AcDbLine
  6
CONTINUOUS
 10
410.026135347171
 20
255.083621649615
 11
410.525320931897
 21
255.083621649615
  0
LINE
  5
37D
100
AcDbEntity
  8
画層1
100
AcDbLine
  6
CONTINUOUS
 10
410.026135347171
 20
248.983621649615
 11
410.525320931897
 21
248.983621649615
  0
TEXT
  5
37E
100
AcDbEntity
  8
0
100
AcDbText
  6
BYLAYER
 10
409.226135347171
 20
247.383621649615
 40
3.2
  1
0
  7
Font_0
100
AcDbText
  0
LINE
  5
37F
100
AcDbEntity
  8
0
100
AcDbLine
  6
CONTINUOUS
 10
407.526135347171
 20
255.083621649615
 11
412.526135347171
 21
255.083621649615
  0
LINE
  5
380
100
AcDbEntity
  8
画層1
100
AcDbLine
  6
CONTINUOUS
 10
428.793818576732
 20
255.998784812862
 11
429.293004161458
 21
255.998784812862
  0
LINE
  5
381
100
AcDbEntity
  8
画層1
100
AcDbLine
  6
CONTINUOUS
 10
429.026135347171
 20
255.083621649615
 11
429.525320931897
 21
255.083621649615
  0
LINE
  5
382
100
AcDbEntity
  8
画層1
100
AcDbLine
  6
CONTINUOUS
 10
429.026135347171
 20
248.983621649615
 11
429.525320931897
 21
248.983621649615
  0
TEXT
  5
383
100
AcDbEntity
  8
0
100
AcDbText
  6
BYLAYER
 10
428.226135347171
 20
247.383621649615
 40
3.2
  1
0
  7
Font_0
100
AcDbText
  0
LINE
  5
384
100
AcDbEntity
  8
0
100
AcDbLine
  6
CONTINUOUS
 10
426.526135347171
 20
255.083621649615
 11
431.526135347171
 21
255.083621649615
  0
LINE
  5
385
100
AcDbEntity
  8
画層1
100
AcDbLine
  6
CONTINUOUS
 10
300.793818576732
 20
316.998784812862
 11
301.293004161458
 21
316.998784812862
  0
LINE
  5
386
100
AcDbEntity
  8
画層1
100
AcDbLine
  6
CONTINUOUS
 10
301.026135347171
 20
316.083621649615
 11
301.525320931897
 21
316.083621649615
  0
LINE
  5
387
100
AcDbEntity
  8
画層1
100
AcDbLine
  6
CONTINUOUS
 10
301.026135347171
 20
309.983621649615
 11
301.525320931897
 21
309.983621649615
  0
LINE
  5
388
100
AcDbEntity
  8
0
100
AcDbLine
  6
CONTINUOUS
 10
160
 20
347
 11
160
 21
225
  0
LINE
  5
389
100
AcDbEntity
  8
0
100
AcDbLine
  6
CONTINUOUS
 10
603
 20
225
 11
603
 21
347
  0
LINE
  5
38A
100
AcDbEntity
  8
0
100
AcDbLine
  6
CONTINUOUS
 10
600
 20
350
 11
163
 21
350
  0
LINE
  5
38B
100
AcDbEntity
  8
0
100
AcDbLine
  6
CONTINUOUS
 10
600
 20
222
 11
163
 21
222
  0
ARC
  5
38C
100
AcDbEntity
  8
0
100
AcDbCircle
  6
CONTINUOUS
 10
163
 20
225
 40
3
100
AcDbArc
 50
180
 51
-90
  0
ARC
  5
38D
100
AcDbEntity
  8
0
100
AcDbCircle
  6
CONTINUOUS
 10
163
 20
347
 40
3
100
AcDbArc
 50
90
 51
180
  0
ARC
  5
38E
100
AcDbEntity
  8
0
100
AcDbCircle
  6
CONTINUOUS
 10
600
 20
347
 40
3
100
AcDbArc
 50
0
 51
90
  0
ARC
  5
38F
100
AcDbEntity
  8
0
100
AcDbCircle
  6
CONTINUOUS
 10
600
 20
225
 40
3
100
AcDbArc
 50
-90
 51
0
  0
LINE
  5
390
100
AcDbEntity
  8
0
100
AcDbLine
  6
CONTINUOUS
 10
623.393039930951
 20
180.133449960861
 11
140.393039930951
 21
180.133449960861
  0
LINE
  5
391
100
AcDbEntity
  8
0
100
AcDbLine
  6
CONTINUOUS
 10
623
 20
48.1334499608609
 11
140
 21
48.1334499608609
  0
LINE
  5
392
100
AcDbEntity
  8
0
100
AcDbLine
  6
CONTINUOUS
 10
140
 20
180.133449960861
 11
140
 21
48.1334499608609
  0
LINE
  5
393
100
AcDbEntity
  8
画層1
100
AcDbLine
  6
CONTINUOUS
 10
616.470444859592
 20
33.8543269254639
 11
616.470444859592
 21
182.968090027655
  0
LINE
  5
394
100
AcDbEntity
  8
画層1
100
AcDbLine
  6
CONTINUOUS
 10
604.430791527754
 20
142.133449960861
 11
623
 21
142.133449960861
  0
LINE
  5
395
100
AcDbEntity
  8
画層1
100
AcDbLine
  6
CONTINUOUS
 10
605.417518878903
 20
86.1334499608609
 11
623
 21
86.1334499608609
  0
LINE
  5
396
100
AcDbEntity
  8
画層1
100
AcDbLine
  6
CONTINUOUS
 10
151.470444859592
 20
178.000850258479
 11
151.470444859592
 21
27.6086907636849
  0
LINE
  5
397
100
AcDbEntity
  8
画層1
100
AcDbLine
  6
CONTINUOUS
 10
140
 20
142.133449960861
 11
161.550800738276
 21
142.133449960861
  0
LINE
  5
398
100
AcDbEntity
  8
画層1
100
AcDbLine
  6
CONTINUOUS
 10
140
 20
86.1334499608609
 11
158.924132529517
 21
86.1334499608609
  0
LINE
  5
399
100
AcDbEntity
  8
0
100
AcDbLine
  6
CONTINUOUS
 10
151.25
 20
145.633449960861
 11
146.75
 21
145.633449960861
  0
LINE
  5
39A
100
AcDbEntity
  8
0
100
AcDbLine
  6
CONTINUOUS
 10
151.25
 20
138.633449960861
 11
146.75
 21
138.633449960861
  0
LINE
  5
39B
100
AcDbEntity
  8
0
100
AcDbLine
  6
CONTINUOUS
 10
154.25
 20
142.633449960861
 11
154.25
 21
141.633449960861
  0
LINE
  5
39C
100
AcDbEntity
  8
0
100
AcDbLine
  6
CONTINUOUS
 10
143.75
 20
141.633449960861
 11
143.75
 21
142.633449960861
  0
ARC
  5
39D
100
AcDbEntity
  8
0
100
AcDbCircle
  6
CONTINUOUS
 10
146.75
 20
142.633449960861
 40
3
100
AcDbArc
 50
90
 51
180
  0
ARC
  5
39E
100
AcDbEntity
  8
0
100
AcDbCircle
  6
CONTINUOUS
 10
146.75
 20
141.633449960861
 40
3
100
AcDbArc
 50
180
 51
-90
  0
ARC
  5
39F
100
AcDbEntity
  8
0
100
AcDbCircle
  6
CONTINUOUS
 10
151.25
 20
141.633449960861
 40
3
100
AcDbArc
 50
-90
 51
0
  0
ARC
  5
3A0
100
AcDbEntity
  8
0
100
AcDbCircle
  6
CONTINUOUS
 10
151.25
 20
142.633449960861
 40
3
100
AcDbArc
 50
0
 51
90
  0
LINE
  5
3A1
100
AcDbEntity
  8
0
100
AcDbLine
  6
CONTINUOUS
 10
151.25
 20
89.6334499608609
 11
146.75
 21
89.6334499608609
  0
LINE
  5
3A2
100
AcDbEntity
  8
0
100
AcDbLine
  6
CONTINUOUS
 10
151.25
 20
82.6334499608609
 11
146.75
 21
82.6334499608609
  0
LINE
  5
3A3
100
AcDbEntity
  8
0
100
AcDbLine
  6
CONTINUOUS
 10
154.25
 20
86.6334499608609
 11
154.25
 21
85.6334499608609
  0
LINE
  5
3A4
100
AcDbEntity
  8
0
100
AcDbLine
  6
CONTINUOUS
 10
143.75
 20
85.6334499608609
 11
143.75
 21
86.6334499608609
  0
ARC
  5
3A5
100
AcDbEntity
  8
0
100
AcDbCircle
  6
CONTINUOUS
 10
146.75
 20
86.6334499608609
 40
3
100
AcDbArc
 50
90
 51
180
  0
ARC
  5
3A6
100
AcDbEntity
  8
0
100
AcDbCircle
  6
CONTINUOUS
 10
146.75
 20
85.6334499608609
 40
3
100
AcDbArc
 50
180
 51
-90
  0
ARC
  5
3A7
100
AcDbEntity
  8
0
100
AcDbCircle
  6
CONTINUOUS
 10
151.25
 20
85.6334499608609
 40
3
100
AcDbArc
 50
-90
 51
0
  0
ARC
  5
3A8
100
AcDbEntity
  8
0
100
AcDbCircle
  6
CONTINUOUS
 10
151.25
 20
86.6334499608609
 40
3
100
AcDbArc
 50
0
 51
90
  0
LINE
  5
3A9
100
AcDbEntity
  8
0
100
AcDbLine
  6
CONTINUOUS
 10
616.25
 20
145.633449960861
 11
611.75
 21
145.633449960861
  0
LINE
  5
3AA
100
AcDbEntity
  8
0
100
AcDbLine
  6
CONTINUOUS
 10
616.25
 20
138.633449960861
 11
611.75
 21
138.633449960861
  0
LINE
  5
3AB
100
AcDbEntity
  8
0
100
AcDbLine
  6
CONTINUOUS
 10
619.25
 20
142.633449960861
 11
619.25
 21
141.633449960861
  0
ARC
  5
3AC
100
AcDbEntity
  8
0
100
AcDbCircle
  6
CONTINUOUS
 10
611.75
 20
142.633449960861
 40
3
100
AcDbArc
 50
90
 51
180
  0
ARC
  5
3AD
100
AcDbEntity
  8
0
100
AcDbCircle
  6
CONTINUOUS
 10
611.75
 20
141.633449960861
 40
3
100
AcDbArc
 50
180
 51
-90
  0
ARC
  5
3AE
100
AcDbEntity
  8
0
100
AcDbCircle
  6
CONTINUOUS
 10
616.25
 20
141.633449960861
 40
3
100
AcDbArc
 50
-90
 51
0
  0
ARC
  5
3AF
100
AcDbEntity
  8
0
100
AcDbCircle
  6
CONTINUOUS
 10
616.25
 20
142.633449960861
 40
3
100
AcDbArc
 50
0
 51
90
  0
LINE
  5
3B0
100
AcDbEntity
  8
0
100
AcDbLine
  6
CONTINUOUS
 10
616.25
 20
89.6334499608609
 11
611.75
 21
89.6334499608609
  0
LINE
  5
3B1
100
AcDbEntity
  8
0
100
AcDbLine
  6
CONTINUOUS
 10
616.25
 20
82.6334499608609
 11
611.75
 21
82.6334499608609
  0
LINE
  5
3B2
100
AcDbEntity
  8
0
100
AcDbLine
  6
CONTINUOUS
 10
619.25
 20
86.6334499608609
 11
619.25
 21
85.6334499608609
  0
ARC
  5
3B3
100
AcDbEntity
  8
0
100
AcDbCircle
  6
CONTINUOUS
 10
611.75
 20
86.6334499608609
 40
3
100
AcDbArc
 50
90
 51
180
  0
ARC
  5
3B4
100
AcDbEntity
  8
0
100
AcDbCircle
  6
CONTINUOUS
 10
611.75
 20
85.6334499608609
 40
3
100
AcDbArc
 50
180
 51
-90
  0
ARC
  5
3B5
100
AcDbEntity
  8
0
100
AcDbCircle
  6
CONTINUOUS
 10
616.25
 20
85.6334499608609
 40
3
100
AcDbArc
 50
-90
 51
0
  0
ARC
  5
3B6
100
AcDbEntity
  8
0
100
AcDbCircle
  6
CONTINUOUS
 10
616.25
 20
86.6334499608609
 40
3
100
AcDbArc
 50
0
 51
90
  0
LINE
  5
3B7
100
AcDbEntity
  8
0
100
AcDbLine
  6
CONTINUOUS
 10
623
 20
180.133449960861
 11
623
 21
48.1334499608609
  0
LWPOLYLINE
  5
3B8
100
AcDbEntity
  8
0
100
AcDbPolyline
  6
CONTINUOUS
 90
     4
 70
     1
 10
230
  20
54.0919247316618
 10
530
  20
54.0919247316618
 10
530
  20
174.091924731662
 10
230
  20
174.091924731662
  0
LINE
  5
3B9
100
AcDbEntity
  8
0
100
AcDbLine
  6
CONTINUOUS
 10
129.870061321178
 20
174.091924731662
 11
124.370061321178
 21
174.091924731662
  0
LINE
  5
3BA
100
AcDbEntity
  8
0
100
AcDbLine
  6
CONTINUOUS
 10
124.870061321178
 20
174.091924731662
 11
124.870061321178
 21
54.0919247316618
  0
CIRCLE
  5
3BB
100
AcDbEntity
  8
0
100
AcDbCircle
  6
CONTINUOUS
 10
124.870061321178
 20
174.091924731662
 40
0.25
  0
CIRCLE
  5
3BC
100
AcDbEntity
  8
0
100
AcDbCircle
  6
CONTINUOUS
 10
124.870061321178
 20
54.0919247316618
 40
0.25
  0
TEXT
  5
3BD
100
AcDbEntity
  8
0
100
AcDbText
  6
CONTINUOUS
 10
124.620061321178
 20
107.091924731662
 40
8
  1
120
  7
Font_0
 50
90
 72
1
 11
124.620061321178
 21
114.091924731662
100
AcDbText
  0
LINE
  5
3BE
100
AcDbEntity
  8
0
100
AcDbLine
  6
CONTINUOUS
 10
129.870061321178
 20
54.0919247316618
 11
124.370061321178
 21
54.0919247316618
  0
LINE
  5
3BF
100
AcDbEntity
  8
0
100
AcDbLine
  6
CONTINUOUS
 10
230
 20
35
 11
230
 21
29.5
  0
LINE
  5
3C0
100
AcDbEntity
  8
0
100
AcDbLine
  6
CONTINUOUS
 10
230
 20
30
 11
530
 21
30
  0
CIRCLE
  5
3C1
100
AcDbEntity
  8
0
100
AcDbCircle
  6
CONTINUOUS
 10
230
 20
30
 40
0.25
  0
CIRCLE
  5
3C2
100
AcDbEntity
  8
0
100
AcDbCircle
  6
CONTINUOUS
 10
530
 20
30
 40
0.25
  0
TEXT
  5
3C3
100
AcDbEntity
  8
0
100
AcDbText
  6
CONTINUOUS
 10
373
 20
30.25
 40
8
  1
300
  7
Font_0
 72
1
 11
380
 21
30.25
100
AcDbText
  0
LINE
  5
3C4
100
AcDbEntity
  8
0
100
AcDbLine
  6
CONTINUOUS
 10
530
 20
35
 11
530
 21
29.5
  0
LINE
  5
3C5
100
AcDbEntity
  8
0
100
AcDbLine
  6
CONTINUOUS
 10
230
 20
54.0919247316618
 11
230
 21
75.8964892116618
  0
LWPOLYLINE
  5
3C6
100
AcDbEntity
  8
0
100
AcDbPolyline
  6
CONTINUOUS
 90
     4
 70
     1
 10
230
  20
91.8920149716617
 10
230
  20
91.8920149716617
 10
230
  20
75.8964892116618
 10
230
  20
75.8964892116618
  0
LWPOLYLINE
  5
3C7
100
AcDbEntity
  8
0
100
AcDbPolyline
  6
CONTINUOUS
 90
     4
 70
     1
 10
230
  20
75.8964892116618
 10
230
  20
75.8964892116618
 10
230
  20
54.0919247316618
 10
230
  20
54.0919247316618
  0
LWPOLYLINE
  5
3C8
100
AcDbEntity
  8
0
100
AcDbPolyline
  6
CONTINUOUS
 90
     4
 70
     1
 10
230
  20
91.8920149716617
 10
230
  20
91.8920149716617
 10
230
  20
75.8964892116618
 10
230
  20
75.8964892116618
  0
LINE
  5
3C9
100
AcDbEntity
  8
0
100
AcDbLine
  6
CONTINUOUS
 10
230
 20
54.0919247316618
 11
230
 21
75.8964892116618
  0
LINE
  5
3CA
100
AcDbEntity
  8
0
100
AcDbLine
  6
CONTINUOUS
 10
230
 20
54.0919247316618
 11
230
 21
75.8964892116618
  0
LINE
  5
3CB
100
AcDbEntity
  8
0
100
AcDbLine
  6
CONTINUOUS
 10
230
 20
75.8964892116618
 11
230
 21
91.8920149716617
  0
LINE
  5
3CC
100
AcDbEntity
  8
0
100
AcDbLine
  6
CONTINUOUS
 10
229.134040099557
 20
75.8964892116618
 11
229.134040099557
 21
91.8920149716617
  0
LINE
  5
3CD
100
AcDbEntity
  8
0
100
AcDbLine
  6
CONTINUOUS
 10
229.134040099557
 20
91.8920149716617
 11
230
 21
91.8920149716617
  0
LINE
  5
3CE
100
AcDbEntity
  8
0
100
AcDbLine
  6
CONTINUOUS
 10
229.134040099557
 20
75.8964892116618
 11
230
 21
75.8964892116618
  0
TEXT
  5
3CF
100
AcDbEntity
  8
0
100
AcDbText
  6
CONTINUOUS
 10
130.600188361611
 20
35.2636679324786
 40
8
  1
ETHERNETポート
  7
Font_0
 72
2
 11
186.600188361611
 21
35.2636679324786
100
AcDbText
  0
LINE
  5
3D0
100
AcDbEntity
  8
0
100
AcDbLine
  6
CONTINUOUS
 10
186.00494329678
 20
34.8912158922548
 11
229.134040099557
 21
75.8964892116618
  0
LINE
  5
3D1
100
AcDbEntity
  8
0
100
AcDbLine
  6
CONTINUOUS
 10
186.00494329678
 20
34.8912158922548
 11
125.733513895966
 21
34.8912158922548
  0
LINE
  5
3D2
100
AcDbEntity
  8
0
100
AcDbLine
  6
CONTINUOUS
 10
125.733513895966
 20
34.8912158922548
 11
106.368084436691
 21
34.8912158922548
  0
ENDSEC
  0
SECTION
  2
OBJECTS
  0
DICTIONARY
  5
3D3
100
AcDbDictionary
  3
ACAD_GROUP
350
3D4
  3
ACAD_MLINESTYLE
350
3D5
  0
DICTIONARY
  5
3D4
102
{ACAD_REACTORS
330
3D3
102
}
100
AcDbDictionary
  0
DICTIONARY
  5
3D5
102
{ACAD_REACTORS
330
3D3
102
}
100
AcDbDictionary
  3
STANDARD
350
3D6
  0
MLINESTYLE
  5
3D6
102
{ACAD_REACTORS
330
3D5
102
}
100
AcDbMlineStyle
  2
Standard
 70
     0
  3

 62
     0
 51
90.0
 52
90.0
 71
     2
 49
0.5
 62
   256
  6
ByLayer
 49
-0.5
 62
   256
  6
ByLayer
  0
ENDSEC
  0
EOF
